Lacuna Coil - Cold Heritage Chords & Tabs

 

Cold Heritage Chords & Tabs

Lacuna Coil Chords & Tabs

Version: 1 Type: Bass Tab 0 ratings
1 star 2 stars 3 stars 4 stars 5 stars
comments

Cold Heritage Bass Tab

Intro:
|-------------|
|-------------|
|-------------| 2x
|-6-----------|
|----5--4--2--|

Verse:
|-------------------------------------------------------------------------|
|-------------------------------------------------------------------------|
|-------------------------------------------------------------------------|
|-6-----------6-----------6-----------6-----4-----6-----------6-----------|
|----7--6--4-----7--2--6-----7--6--4-----2-----4-----7--6--4-----7--2--6--|
[ Tab from: http://www.guitartabs.cc/tabs/l/lacuna_coil/cold_heritage_btab.html ]
Chorus:
|------------------|
|------------------|
|------------------|4x
|-6-----4----------|
|----2-----4--(00)-|

Bridge:
|--------------|
|--------------|
|--------------|
|-6-(let ring)-|
|--------------|

|---------------|
|---------------|
|---------------|
|--6-----4--2---|
|-----2---------|

Verse2:
|-------------------------|
|-------------------------|
|-------------------------|
|-6-----------6-----------|
|----7--6--4-----7--2--6--|

Chorus 4x

|--------------|
|--------------|
|--------------|
|-6-(let ring)-|
|--------------|

Chorus 4x

End:
|--------------|
|--------------|
|--------------|
|-6-(let ring)-|
|--------------|
Comments