Lacuna Coil - Angels Punishment Chords & Tabs

 

Angels Punishment Chords & Tabs

Lacuna Coil Chords & Tabs

Version: 1 Type: Tab 0 ratings
1 star 2 stars 3 stars 4 stars 5 stars
comments

Angels Punishment Tab

-------------------------------------------------------------------------------
			     Angel's Punishment - Lacuna Coil
-------------------------------------------------------------------------------
Tabbed by: Sick Steve


Tuning: Standard tuned seven string

Intro Guitar 1

|-5-----0--1-0---5-----0h1-----5-----0--1-0---5------0h1----------|
|-----3--------------3-----3-----3-----------------3-----1---------|
|------------------------------------------------------------------|
|------------------------------------------------------------------|
|------------------------------------------------------------------|
|------------------------------------------------------------------|
|------------------------------------------------------------------|

Intro Guitar 2

|-----------------------------------------------|
|-----------------------------------------------|
|-----------------------------------------------|
|-----------------------------------------------|
|-----------------------------------------------|
|-----------------------------------------------|
|-3--x-15\--------------------------------------|

Verse (Backward guitar)
[ Tab from: http://www.guitartabs.cc/tabs/l/lacuna_coil/angels_punishment_tab.html ]
|-----------------------------------------------|
|---8-------------10----------------------------|
|--------10-9-7------10-9-----------------------|
|-----------------------------------------------|
|-----------------------------------------------|
|-----------------------------------------------|
|-----------------------------------------------|

Chorus Guitar 1

|-----------------------------------------------|
|-----------------------------------------------|
|-----------------------------------------------|
|-----------------------------------------------|
|-------7---------------------------------------|
|-5-----5------8------6-------------------------|
|-3------------6------4-------------------------|

Chorus Guitar 2 (Not to sure about this part. It was hard to hear)

|-----------------------------------------------|
|----------8--------------10--------8-----------|
|-7-9-10--------7-9-10---------7-9---10--------|
|-----------------------------------------------|
|-----------------------------------------------|
|-----------------------------------------------|
|-----------------------------------------------|

Bridge

|-----------------------------------------------|
|-----------------------------------------------|
|-----------------------------------------------|
|--5--------------------5-----7-----------------|
|--3------7------8------5-----7-----------------|
|--3------7------8------3-----5-----------------|
|---------5------6------------------------------|

Pretty simple song, but none the less a great one.
Have fun !


Any comments, suggestions and hate mail to: saltmakesmecough@yahoo.co.uk
Comments