Lacuna Coil - A Current Obsession Chords & Tabs

 

A Current Obsession Chords & Tabs

Lacuna Coil Chords & Tabs

Version: 1 Type: Bass Tab 0 ratings
1 star 2 stars 3 stars 4 stars 5 stars
comments

A Current Obsession Bass Tab

Verse1:
|---------------|
|---------------|
|---------------|
|----5-----5----|
|-333-3-333--33-| 
I didn't figured out the rythm exactly... but it's something like this.
Just listen to the song to know how often to play! The 5 is always playing, when the
drumer plays the snare. And the 3 is in the same tact as the bass drum.

Chorus:
|---------------|
|---------------|
|---------------| 8x
|-2-3--5-556-66-|
|---------------|

Verse 2:
|--------------|
|--------------|
|--------------| 4x
|-2-2-3--5-5-6-|
|--------------|
[ Tab from: http://www.guitartabs.cc/tabs/l/lacuna_coil/a_current_obsession_btab.html ]
|----------|
|----------|
|----------| 8x
|-2-3--5-6-|
|----------|

Bass-Interlude:
|---------------------------------|
|---------------------------------|
|-----------------------------5---|
|-5-3-8-6-5-3-6-8-5-3-8-6-5-1---6-|
|---------------------------------|

Chorus 8x

Verse 2 (The whole thing like before)

Interlude:
|--------------|
|--------------|
|--------------|
|-3-(let ring)-|
|--------------|

|-------------------|
|-------------------|
|-------------------| 2x
|-3-3-3/5---6-6-6/8-|
|-------------------|

|----------|
|----------|
|----------| 8x
|-2-3--5-6-|
|----------|
Comments