Lacson Nigel - Soja Song Chords & Tabs

 

Soja Song Chords & Tabs

Lacson Nigel Chords & Tabs

Version: 1 Type: Tab 1 rating
1 star 2 stars 3 stars 4 stars 5 stars
comments

Soja Song Tab

   
Soja Song by Nigel Lacson from Mountain

intro:
G       C        D
So     ja      sauce


verse 1:
7---7---7---7----5-5----5--------
7---7---7---7----5-5----5--------
7---7---7---7----6-6----6--------
7---7---7---7----5-5----5--------
7---7---7---7----7-7----7--------
7---7---7---7----5-5----5--------
Can I have some Soja Sauce?

verse 2:
7---7---7---7----5-5----5--------
7---7---7---7----5-5----5--------
7---7---7---7----6-6----6--------
7---7---7---7----5-5----5--------
7---7---7---7----7-7----7--------
7---7---7---7----5-5----5--------
kan ik wat sojasaus hebben??
[ Tab from: http://www.guitartabs.cc/tabs/l/lacson_nigel/soja_song_tab.html ]
Bridge:
--4-7---x--------------------------
----x---7--------------------0------
9-8-9---x---2----------------x------
----x---4---x----------------2------
--1-5---x---x----0-2---------2-----
0-0-0-2-0-0-0----x-x---------0-----
if I can't have soja no one can!


verse 3:
7---7---7---7----5-5----5--------
7---7---7---7----5-5----5--------
7---7---7---7----6-6----6--------
7---7---7---7----5-5----5--------
7---7---7---7----7-7----7--------
7---7---7---7----5-5----5--------
bordo i taglia some soia salsa?

outro:

0---21-21--20-20--21-21----
3--------------------------
2--------------------------
1--------------------------
0--------------------------
0---21-21--20-20--21-21----
    you      eat    now!
Comments