Lacerated - Loves A Fire Chords & Tabs

 

Loves A Fire Chords & Tabs

Lacerated Chords & Tabs

Version: 1 Type: Tab 0 ratings
1 star 2 stars 3 stars 4 stars 5 stars
comments

Loves A Fire Tab

   
Tabbed by : kurt233smith
Artist: Lacerated
Song: Loves fire

Intro
e|-7-7-7-7-7-9-9-9-9-7-7-7-7-9-9-9(ring)|
b|9-9-9-9-9-9-9-9-9-9-9-9-9-9-9-9-9-----|
g|--------------------------------------|
d|--------------------------------------|
a|--------------------------------------|
e|--------------------------------------|
 x4               
e|9-9-9-9--------|-------|
b|7-7-7-7--------|-------|
g|---------------|-------|
d|--------7-7-7-7|x-x-x-x|
a|--------7-7-7-7|x-x-x-x|
e|--------5-5-5-5|x-x-x-x|

Verse x2
e|---------------------------------|
b|---------------------------------|
g|---------------------------------|
d|7--7-xx-7--7-xx-7--7-xx-7--7-7-7-|
a|7--7-xx-7--7-xx-7--7-xx-7--7-7-7-|
e|5--5-xx-5--5-xx-5--5-xx-5--5-5-5-|

e|-----------------------------|
b|-----------------------------|
g|7--7-xx-7--7-xx-7--7-xx-7--7-|
d|7--7-xx-7--7-xx-7--7-xx-7--7-|
a|5--5-xx-5--5-xx-5--5-xx-5--5-|
e|-----------------------------|
[ Tab from: http://www.guitartabs.cc/tabs/l/lacerated/loves_a_fire_tab.html ]
e|---------------------------|
b|---------------------------|
g|---------------------------|
d|7--7-xx-7--7-xx-7-7-7-7-7--|
a|7--7-xx-7--7-xx-7-7-7-7-7--|
e|5--5-xx-5--5-xx-5-5-5-5-5--|

e|-----------------------------------------|
b|-----------------------------------------|
g|7--7-7--7-7-7-7-7-7-7--7--7-7-7-7-7-7-7--|
d|7--7-7--7-7-7-7-7-7-7--7--7-7-7-7-7-7-7--|
a|9--9-9--9-9-9-9-9-9-9--5--5-5-5-5-5-5-5--|
e|-----------------------------------------|
Chorus PLay this part twice (After second time)
e|-------------------|      e|------------------|
b|-------------------|      b|------------------|
g|7/--14-14-14-14-14-|      g|7/--9-9-9-9-9-----|
d|7/--14-14-14-14-14-|      d|7/--9-9-9-9-9-----|
a|5/--12-12-12-12-12-|      a|5/--7-7-7-7-7-----|
e|-------------------|      e|------------------|

play first part then       e|-------------------|                           
                           b|-------------------|
                           g|9--------9-7-------|
                           d|9-(ring)-9-7(ring)-|
                           a|7--------7-5-------|
                           e|-------------------|

Then repeat
and thats it, easy but fun to!!!
Comments