Labrinth - Earthquake Chords & Tabs

 

Labrinth Chords & Tabs

Version: 3 Type: Tab 0 ratings
1 star 2 stars 3 stars 4 stars 5 stars
comments

Earthquake Tab

I have made this into a rock type of song for bands that want to cover this song :)

Intro ( play these over someone solo-ing over the C scale )

labrinth come in...
E|-----------------------------------|
B|-----------------------------------|
G|------------------5----------------|
D|------------------5-------------6--|
A|------------------3-------------6--|
E|--------------------------------4--|

Main riff (chorus)
[ Tab from: http://www.guitartabs.cc/tabs/l/labrinth/earthquake_tab_ver_3.html ]
E|-----------------------------------|
B|-----------------------------------|
G|--5-5---17~---18~--5-5---14~---15~-|
D|--5-5--------------5-5-------------|
A|--3-3--------------3-3-------------|
E|-----------------------------------|

Chords that go over chorus 


E|-------------|
B|-------------|
G|--5----------|
D|--5--6--5----|
A|--3--6--5----|
E|-----4--3----|

Verses


E|-------------------------------------------------------|
B|-------------------------------------------------------|
G|-------------------------------------------------------|
D|-------------------------------------------------------|
A|--3-3-3-3-3-3-3-3-17~--18~--3-3-3-3-3-3-3-3-14~--15~---|
E|-------------------------------------------------------|
Comments