Labeled - Wouldnt It Chords & Tabs

 

Wouldnt It Chords & Tabs

Labeled Chords & Tabs

Version: 1 Type: Tab 0 ratings
1 star 2 stars 3 stars 4 stars 5 stars
comments

Wouldnt It Tab

"Wouldn't It?" by Labeled

e--------------------
b--------------------
g--------------------
d--------------------
a-------7--------66--
E--4//7-7/4-4//6-66--
[ Tab from: http://www.guitartabs.cc/tabs/l/labeled/wouldnt_it_tab.html ]
e-----------------------------------------------------
b-----------------------------------------------------
g-----------------------------------------------------
d--6--6--6-6-6-2--2--2-2-2-6--6--6-6-6-4-4-444444444--
a--6--6--6-6-6-2--2--2-2-2-6--6--6-6-6-4-4-444444444--
E--4--4--4-4-4-0--0--0-0-0-4--4--4-4-4-6-6-666666666--

e-----------------------------------------------------
b-----------------------------------------------------
g-----------------------------------------------------
d--6--6--6-6-6-2--2--2-2-2-6--6--6-6-6-5-5-555555555--
a--6--6--6-6-6-2--2--2-2-2-6--6--6-6-6-5-5-555555555--
E--4--4--4-4-4-0--0--0-0-0-4--4--4-4-4-7-7-777777777--

A great song, by a great band. Have fun.
Comments