Labanoon - Waiting Chords & Tabs

 

Waiting Chords & Tabs

Labanoon Chords & Tabs

Version: 1 Type: Tab 0 ratings
1 star 2 stars 3 stars 4 stars 5 stars
comments

Waiting Tab

   
Artist: labanoon
Song: Waiting (track 12)
TAB by: Ben Rice
othenelo34@hotmail.com

ok, is is very probable that no on will ever use this tab, because
the band who it is by is thai.
its a very cool song, slow and te thai language is very beautiful.
my friend (who is thai) said he wanted to sing this for a coffe house,
so it was up to me to fingure it all out in a night  
and play it the next day.
so since i didnt find any tabs for it... this is what i played:

tuning: standard
# of guitars: 2

plays it all on electric guitar, but it sounds good on acoustic too :)

intro:
e|------------------------------0-----------------------------------------2---|
b|-------3---------3--------3--------3---------1---------3---------3------3---|
g|-----0---0-----0---0----0---0---0----0-----0---0-----2---2-----0---0----2---|
d|--------------------------------------------------0-------------------------|
a|-----------------------------------------3----------------------------------|
e|--3---------2---------0--------------------------------------3--------------|

play bass note with your thumb

verse 1 (plays arpegios over what would be a normal verse chord progression)
e|------------------------------0--------------------------------------0--------|
b|-------3---------3--------3--------3----------3---------3--------3--------3---|
g|-----0---0-----0---0----0---0---0----0------0---0-----0---0----0---0---0----0-|
d|------------------------------------------------------------------------------|
a|------------------------------------------------------------------------------|
e|--3---------2---------0------------------3---------2---------0----------------|

e|-----------------------------------------------------------------------2---|
b|-------1--------3---------3----------0----------1--------3--------3----3---|
g|-----0---0----2---2-----0---3------0---0------0---0----2---2----0---0--2---|
d|------------0----------------------------------------0---------------------|
a|--3----------------------------------------3-------------------------------|
e|---------------------3----------0-----------------------------3------------|

ok, another verse, but from now on, there is no picking.
....i should say that this is played with a second guitar, and this is not an exact TAB
i had trouble with the third chord in the verse. its an Em, and i think he plays it with the 
3 high strings just open... but it doesnt sounds quite right, and over it the second guitar 
plays a few hammer ons and pull offs that are really faint and hard to hear.
so this is what i played:


verse 2:
   G         G9th?  Em  

|--3-3-xx--2-2-xx--3-3----------|
|--3-3-xx--3-3-xx--5-5----------|
|--0-0-----0-0-----4-4----------|
|-------------------------------|
|-------------------------------|
|-------------------------------|

   G         G9th?  Em  

|--3-3-xx--2-2-xx--3-3----------|
|--3-3-xx--3-3-xx--5-5----------|
|--0-0-----0-0-----4-4----------|
|-------------------------------|
|-------------------------------|
|-------------------------------|

  C       D       G    Em
|-0-0-xx--2-2-xx--3-x--3--------|
|-1-1-xx--3-3-xx--3-x--5--------|
|-0-0-----2-2-----0----4--------|
|-------------------------------|
|-------------------------------|
|-------------------------------|

  C       D       G    
|-0-0-xx--2-2-xx--3-------------|
|-1-1-xx--3-3-xx--3-------------|
|-0-0-----2-2-----0-------------|
|-------------------------------|
|-------------------------------|
|-------------------------------|

ok, so the verse goes like that. i'm sure the chords are right, 
its just how to play them that i'm not completely possitive on, or at least
i'm not possitive about Em. 

chorus:
[ Tab from: http://www.guitartabs.cc/tabs/l/labanoon/waiting_tab.html ]
  C       D       G    Em
|-0-0-xx--2-2-xx--3-x--3--------|
|-1-1-xx--3-3-xx--3-x--5--------|
|-0-0-----2-2-----0----4--------|
|-------------------------------|
|-------------------------------|
|-------------------------------|

  C       D       G    
|-0-0-xx--2-2-xx--3-------------|
|-1-1-xx--3-3-xx--3-------------|
|-0-0-----2-2-----0-------------|
|-------------------------------|
|-------------------------------|
|-------------------------------|

  C       D       G    G9th?  Em
|-0-0-xx--2-2-xx--3-xx-2-xx---3--|
|-1-1-xx--3-3-xx--3-xx-3-xx---5--|
|-0-0-----2-2-----0----0------4--|
|--------------------------------|
|--------------------------------|
|--------------------------------|

  C       D       G    
|-0-0-xx--2-2-xx--3-------------|
|-1-1-xx--3-3-xx--3-------------|
|-0-0-----2-2-----0-------------|
|-------------------------------|
|-------------------------------|
|-------------------------------|

ok, thats the chorus... 

verse 2: the same as above

...and now SOLO!
its nothing special, but it sounds cool. this is about what it is:

Guitar 2: plays verse riff

Guitar 1: solo bassed on Em

|---------------------------------------------------------------------|
|-------------------------12-12--12-12---10-10--10\8/10--8-8----------|
|------------12---12--14~--------12-12---11-11--11\9/11--9-9----------|
|------12-14----14----------------------------------------------------|
|---14----------------------------------------------------------------|
|---------------------------------------------------------------------|

|-------------------------12---14-15----------------------------------|
|--------------12-12---/12-12------------12~-------12-12---13-13------|
|--------12-14---------------------------------/14--------------------|
|--/12-14-------------------------------------------------------------|
|---------------------------------------------------------------------|
|---------------------------------------------------------------------|

|----13-15------------------------------------------------------------|
|-/15-----15--15p12---13p12-------------------------------------------|
|------------------12------12-11--/11-12------------------------------|
|----------------------------------------14----/10-9-10-12-12--10-9---|
|------------------------------------------------------------------12-|
|---------------------------------------------------------------------|

|-------------------|
|-------------------|
|-------------------|
|-------------------|
|-------7h9h10------|
|--7h8h10-----------|

its hard to play to the rythm he usues... but when you do, it sounds so sweet :)

-Chorus again
-and then the second part of the chorus like this:

  C       D       G    G9th?  Em
|-0-0-xx--2-2-xx--3-xx-2-xx---3--|
|-1-1-xx--3-3-xx--3-xx-3-xx---5--|
|-0-0-----2-2-----0----0------4--|
|--------------------------------|
|--------------------------------|
|--------------------------------|

  C       D       G    
|-0-0-xx--2-2-xx--3-------------|
|-1-1-xx--3-3-xx--3-------------|
|-0-0-----2-2-----0-------------|
|-------------------------------|
|-------------------------------|
|-------------------------------|

Outro:

|------------------------3-------3--|
|----1-------3-------3------3----3--|
|--0---0---2---2---0---0--0---0--0--|
|--------0--------------------------|
|-3---------------------------------|
|-----------------3-----------------|


and thats all...
if you find anythign wrong. feel free to e-mail me.
if you want a mp3 of the song, i have posted it on my site:
http://dadudeben.tripod.com
or if you need anything else... want me to TAB something e-mail me:
othenelo34@hotmail.com



Comments