La Renga - La Razon Que Te Demora Chords & Tabs

 

La Razon Que Te Demora Chords & Tabs

La Renga Chords & Tabs

Version: 2 Type: Tab 0 ratings
1 star 2 stars 3 stars 4 stars 5 stars
comments

La Razon Que Te Demora Tab

   
-----------------------------------------------------------------------------
		       LA RAZON QUE TE DEMORA - La Renga
-----------------------------------------------------------------------------

Tabbed by: Ignacio "Coco" Vespoli	
Email: cocofuhgawz@hotmail.com		

Tuning: Normal

SOLO: Min: 2:01


              b.u.   b.d.
e|-------------------------------------5--5/7-7--5-5/7-5----5\---------
B|--7b-------10(12)__10__7--------------------0----0-----7--7\---------
G|--7b--9p7-----------------9p7---<7>---------------------------9/11---
D|------------------------------9--------------------------------------
A|---------------------------------------------------------------------
E|---------------------------------------------------------------------

                      b.u.       r.b.  r.b. b.u. b.d.
----------------------------------------------------------------------------
-----------------------------10---------------------------------------------
--10-<9>-<7>-<9>-<7>-<9>(11)----(<11>)-(10)-(11)___9__7---------------------
--------------------------------------------------------9p7--7h9p7----------
-------------------------------------------------------------------7\5-7p5--
----------------------------------------------------------------------------

[ Tab from: http://www.guitartabs.cc/tabs/l/la_renga/la_razon_que_te_demora_tab_ver_2.html ]
------------------------------------------------------------------11/12-10--
---------------------------------------------------------12h14h15-----------
-----7--7---------------------9h11h12--9h11h12--11h12h14--------------------
----------9-----------9h11h12-----------------------------------------------
--/9---------/9-10h12-------------------------------------------------------
----------------------------------------------------------------------------

                                               b.u.  r.b.   b.u.   r.b. 
--9--------17-15-14-14\12-------------------------------------------------
----/14-15----------------15-14-15-/14-12-14--10(12)-(11)---(12)---(11)---
--------------------------------------------------------------------------
--------------------------------------------------------------------------
--------------------------------------------------------------------------
--------------------------------------------------------------------------

  b.u.   b.d.    b.u.      r.b.  b.d.    b.u.          r.b.     r.b.
------------------------------------------------|----------------------|
--(12)___10__7---------10-----------------------|---7--------7---------|
----------------9(11)------(11)___9__7---9(11)--|------(11)-----(11)---|
------------------------------------------------|----------------------|
------------------------------------------------|----------------------|
------------------------------------------------|----------------------|
                                                       repeat a lot

 r.b.  release bend                                                     
 b.d.  bending down
 b.u.  bending up
 /     slide up
 \     slide down
 h     hammer-on
 p     pull-off
 ~     vibrato
 +     harmonic
 x     Mute note
===============================================================================
Comments? Send me an e-mail!!!
Comments