La Ley - Surazul Chords & Tabs

 

Surazul Chords & Tabs

La Ley Chords & Tabs

Version: 1 Type: Tab 0 ratings
1 star 2 stars 3 stars 4 stars 5 stars
comments

Surazul Tab

   
-------------------------------------------------------------------------------
			     Surazul-La Ley
-------------------------------------------------------------------------------
Tabbed by:Rockr_01	
Email:afmondragonb@aol.com
Lead Guitar
Tuning:Normal

Intro
e|---------------------------------------------------------------------------|
B|---------------------------------------------------4/5~--4/5---------------|
G|-----------------------------------------------5-7-----------5-3-----------|
D|-----------1/2~--1/2-----------------------5-7-------------------5~--------|
A|-------3-5-----------3----3------------------------------------------------|
E|---3-5-----------------5~---5-3~-0-3-4/5~----------------------------------|
Intro
e|---------------------------------------------------------------------------|
B|---------------------------------------------------------------------------|
G|--5-4--------------------------5-4-----------------------------------------|
D|------7/9\7-5~------5---5/7~--------5~-------------------------------------|
A|----------------5-7---7----------------------------------------------------|
E|---------------------------------------------------------------------------|

e|---------------------------------------------------------------------------|
B|---------------------------------------------------------------------------|
G|------5-4~-----------------------------------------------------------------|
D|--5h7----------------------------------------------------------------------|
A|---------------------------------------------------------------------------|
E|---------------------------------------------------------------------------|

e|---------------------------------------------------------------------------|
B|----------------8-8-7-5~---------------------------------------------------|
G|--7b9r7-5~------5-5-4-2~---------------------------------------------------|
D|---------------------------------------------------------------------------|
A|---------------------------------------------------------------------------|
E|---------------------------------------------------------------------------|

e|----------8----------------------------------------------------------------|
B|----10------10~------------------------------------------------------------|
G|-7h9--7h9------------------------------------------------------------------|
D|---------------------------------------------------------------------------|
A|---------------------------------------------------------------------------|
E|---------------------------------------------------------------------------|

Solo
e|---------------------------------------------------------------------------|
B|------------------------------------10-8---10-8---10-8---------------------|
G|-----5-5-------5-5---5~--5/7------9------9------9------9~-7/9-7-5~---5-5-7~|
D|---7------7~-7-----7---------7-------------------------------------7-------|
A|---------------------------------------------------------------------------|
E|---------------------------------------------------------------------------|
[ Tab from: http://www.guitartabs.cc/tabs/l/la_ley/surazul_tab.html ]
e|----------------7b9r7-5~-10b11-8-10~--10b11r10-8---------10-8--------------|
B|-10~/8/5----------------------------------------10-12-8~------12-8-10-8----|
G|--7~/5/2-7-5-9~--------------------------------------------------------9---|
D|-------------7~------------------------------------------------------------|
A|---------------------------------------------------------------------------|
E|---------------------------------------------------------------------------|

e|---------------------------------------------------------------------------|
B|---------------------------------------------------------------------------|
G|--7-5---5-7/9----------END SOLO--------------------------------------------|
D|------7--------------------------------------------------------------------|
A|---------------------------------------------------------------------------|
E|---------------------------------------------------------------------------|
Lead Guitar Chorus
e|-1-0------------------------------------------------7/8\7------------------|
B|-----1--------------------------10-8~--8/10-10-8-----------10-10~----------|
G|-------0~----------5------7/9-9------------------9~------------------------|
D|-----------------5---7~----------------------------------------------------|
A|-------------5/7-----------------------------------------------------------|
E|---------------------------------------------------------------------------|

e|---------------------------------------------------------------------------|
B|---------------------------------------------------------------------------|
G|-------------------5-7/9-7-5----------5-----5-----5~--------------4/5-7----|
D|-----7-7/9~----5-7-----------7~---5-7---5-7---5-7-------------5-7-------7~-|
A|-7-9------------------------------------------------------5-7--------------|
E|------------------------------------------------------5-8------------------|

e|---------------------------------------------------------------------------|
B|--6-----------------------8/10\8-8/10\8-8/10\8-----8/10\8-8/10\8-8/10\8-13~|
G|----7-5/7-------------------------------------9~---------------------------|
D|----------7-------5-5/7~---------------------------------------------------|
A|----------------5----------------------------------------------------------|
E|------------5-8------------------------------------------------------------|

e|----------------------8-5~--------------------------------------------5-8-5|
B|------------------5-8------------------------------5~--------------5-8-----|
G|--------------5-7--------------5-----5-----5h7p5----------------5-7--------|
D|----------7-5--------------5-7---5-7---5-7-------7-----------5-7-----------|
A|------5-7------------------------------------------------5-7---------------|
E|--5-8-------------------------------------------------5-8------------------|
Listen to the song first, most of these notes are barely audible, you have to listen
very closely, I did not write the chords that go in between the licks.

Escucha la cancion primero porque muchas de esas notas no se pueden oir muy bien,
necesitaras escuchar muy bien, No escibi los accordes que ban en medio de estos "licks".
| /  slide up
| \  slide down
| h  hammer-on
| p  pull-off
| ~  hold note
| +  harmonic
| x  Mute note
  b  Bend Note 1 whole step
  r  Release note
===============================================================================
Comments