La Ley - Mentira Unplugged Chords & Tabs

 

Mentira Unplugged Chords & Tabs

La Ley Chords & Tabs

Version: 1 Type: Tab 0 ratings
1 star 2 stars 3 stars 4 stars 5 stars
comments

Mentira Unplugged Tab

   
MENTIRA ( UNPLUGGED )
LA LEY 

TRANSCRITA POR: MARTIN L. FRANCO  martinlfranco@msn.com

^:LIGADURA
/:SLIDE ACENDENTE
\:SLIDE DECENDENTE 
H:HAMMER ON
P:PULL OFF
S:SLIDE
~:VIBRAR


[INTRO]

   Am      Asus2-7       C7M         G            Am

E--0---0----0---------------------------------------------------|
B--1-----0--0---------------------------------------------------|
G--2--------0----------4-5--555—-7^9-7—-7-5^7^5—4-4-------------|
D--2--------2--------7--------------------------------7---------|
A--0--------0----5^7------------------------------------5^7~~~--|
E---------------------------------------------------------------|
                  H               H        H P           H





  Asus2-7   C7M           G

E---------------------------------------------|
B---------------------------------------------|
G---------------------------------------------|
D------5^7--5-5-------------------------------|
A-—5^7------------5/7-5-3-5/7\5--3--2--0------|
E---------------------------------------------|
H   H          S       S S     



[VERSOS]

   Am       Am7M     C7M       G          

E----0---|---0----|---0----|---3-----||
B----1---|---1----|---0----|---3-----||
G-°--2---|---0----|---0----|---0---°-||
D----2---|---2----|---2----|---0-----||
A-°--0---|---0----|---3----|---2---°-||
E--------|--------|--------|---3-----||
|                                    || 
|------------- 4 VECES --------------||  




[PRE CORO]

   G                        D                      
                           (G la 2° vez)                     
E--------------0--------||-----------------------||
B------------------0----||-----------------------||
G-°----------0---0----°-||-°----------0--------°-||
D------4---4------------||------4---4---4---4----||
A-°--5---5------------°-||-°--5---5-------5----°-||
E-----------------------||-----------------------||





  A               B
 
E--------0------|--------0------||
B----------0----|----------0----||
G----6-------6--|----8-------8--||
D--7---7--------|--9---9--------||
A---------------|---------------||
E---------------|---------------||






[CORO]
                                     
    C    B    A    B    C    B        E    Esus4   E
                                           
E---0----0----0----0----0----0-----|--0----0-------0---|
B---0----0----0----0----0----0-----|--0----0-------0---|
G---9----8----6----8----9----8-----|--1----2-------1---|
D---10---9----7----9----10---9-----|--2----2-------2---|
A---10---9----7----9----10---9-----|--2----2-------2---|
E----------------------------------|--0----0-------0---|






    C    B    A    B    C    B        E    
                                           
E---0----0----0----0----0----0-----|--0----|
B---0----0----0----0----0----0-----|--0----|
G---9----8----6----8----9----8-----|--1----|
D---10---9----7----9----10---9-----|--2----|
A---10---9----7----9----10---9-----|--2----|
E----------------------------------|--0----|







[VERSOS]...TOCALO OTRA VEZ 






[PRE CORO]...TOCALO OTRA VEZ
















[SOLO]

             Am                    C          G
[ Tab from: http://www.guitartabs.cc/tabs/l/la_ley/mentira_unplugged_tab.html ]
E------------------------------------------------------------|
B------------------------------------------8--8----8---------|
G-------0--4-5-5----5-4-5--------4-5-5-7/9----7^9—-7^9—-7~~~-|
D---0^2----------------------5-7-----------------------------|
A------------------------------------------------------------|
E------------------------------------------------------------|
     H                                  S      H    H





          Am                C                         G

E--------------------------------------------------8----7~~~-|
B---------------------------------------------8/10---10------|
G---7^5^4-5--4------------------------5/7-8-9----------------|
D--------------7-5----------------5-7------------------------|
A------------------5^7~~----3/5-7----------------------------|
E-------------------------3----------------------------------|
     P P            H        S         S       S





                   Am                        C               G

E---------------------------/8-8-8-8---8-8---10-10---X--X----X--|
B---10-8~~------------------/8-8-8-8---8-8---8--8----10-10---8--|
G---------7^9-7----7/9-8/9~~/9-9-9-9---8-9---10-10---9--9----7--|
D---------------10----------------------------------------------|
A---------------------------------------------------------------|
E---------------------------------------------------------------|
           H        S   S   S





  G               Am                     C               G

E-----------------------------/8-8-8-8---10-10---8-8---X-X------|
B---------5-------------------/8-8-8-8---8--8----8-8---6-6------|
G---4/5-7---7-5-4-------------/9-9-9-9---10-10---9-9---7-7------|
D-----------------7-7--5----------------------------------------|
A------------------------5^7~-----------------------------------|
E---------------------------------------------------------------|
     S                    H   S

  



  G

E------------------------------------------------|
B------------------------------------------------|
G---7-5-4-5—---4^5^4-----------------------------|
D----------------------7-5-7-----5^7^5-----------|
A----------------------------------------7-------|
E-------------------------------------------3----|
                H P               H P






[PRE CORO]... TOCALO OTRA VEZ








[CORO]

    C    B    A    B    C    B        E    Esus4   E        C  
                                           
E---0----0----0----0----0----0-----|--0----0-------0----||
B---0----0----0----0----0----0-----|--0----0-------0----||
G-°-9----8----6----8----9----8-----|--1----2-------1--°-||
D---10---9----7----9----10---9-----|--2----2-------2----||
A-°-10---9----7----9----10---9-----|--2----2-------2--°-||
E----------------------------------|--0----0-------0----||
|                                                       ||
|------------------------ 3 VECES ----------------------||


    C    B    A    B     C         E           E
                                           
E---0----0----0----0-----0---------0-----------0---||
B---0----0----0----0-----0---------0-----------0---||
G---9----8----6----8-----9---------11----------1---||
D---10---9----7----9-----10--------12----------2---||
A---10---9----7----9-----10--------12----------2---||
E----------------------------------0-----------0---||











*****************************************************************
* dudas, comentarios o sujerencias? Mandame un e-mail           *
* guadalajara jalisco mexico.                                   *
*****************************************************************

Comments