La Guns - One More Reason Chords & Tabs

 

One More Reason Chords & Tabs

La Guns Chords & Tabs

Version: 1 Type: Bass Tab 0 ratings
1 star 2 stars 3 stars 4 stars 5 stars
comments

One More Reason Bass Tab

Intro
G|-------------------------------|
D|-----5h7----7-5----------------|
A|-0-0----0-0--------------------|
E|-------------------------------|

Repeat until around 0:24
[ Tab from: http://www.guitartabs.cc/tabs/l/la_guns/one_more_reason_btab.html ]
G|-------------------------------|
D|-----5h7-----7-5-----5h7-7-7---|
A|-0-0-----0-0-----0-0-----------|
E|-------------------------------|

Repeat until 0:33

G|-------------------------------|
D|-----5h7-----7-5-----5h7-7-5-7-|
A|-0-0-----0-0-----0-0-----------|
E|-------------------------------|

Verse's:

G|-------------------------------|
D|-------------------------------|
A|-0-0-0-0-0-0-0-0-0-0-7-5-7-----|
E|-------------------------------|
Comments