La Guns - No Mercy Chords & Tabs

 

No Mercy Chords & Tabs

La Guns Chords & Tabs

Version: 1 Type: Bass Tab 0 ratings
1 star 2 stars 3 stars 4 stars 5 stars
comments

No Mercy Bass Tab

tabbed by Doug
Drop D tuning

(0:06)
|--------------------------------|
|---------------/5-4-2-----------|
|-----------------------5-3-2-0--|
|--5-5-5-5-5-5-------------------|

|------------------------------------------|
|------------------------------------------|
|--0-0--5-3--0-0--5-3--0-0--5-3--0-0--5-3--|
|------------------------------------------|
[ Tab from: http://www.guitartabs.cc/tabs/l/la_guns/no_mercy_btab.html ]
Verse 4x
|-------------------------|
|-------------------------|
|-0-0-0-0-0-0-0-0--0-5-3--|
|-------------------------|

Chorus 2x
|--------------------------------------------|
|--------------------------------------------|
|-5-0-0-0-0-0--3-0-0-0-0-0--0-0-5-3--0-0-5-3-|
|--------------------------------------------|

Interlude
|---------------------|
|----/5-4-2-----------|
|------------5-3-2-0--|
|---------------------|

|----------------------------------------|
|----------------------------------------|
|-0-0--5-3--0-0--5-3--0-0--5-3--0-0--5-3-|
|----------------------------------------|
Comments