La Dispute - Six Chords & Tabs

 

Six Chords & Tabs

La Dispute Chords & Tabs

Version: 1 Type: Tab 0 ratings
1 star 2 stars 3 stars 4 stars 5 stars
comments

Six Tab

-------------------------------------------------------------------------------
			     Six - La Dispute
-------------------------------------------------------------------------------
Tabbed by: Kamdude
Email: triathlete_max@hotmail.com

Tuning: Standard

e|----------|
B|----------|
G|----------|
D|--3/2-----|  This is played once at the beginning and I think it is played 
A|------3---|  at the four endings of the following:
E|----------|


e|---------------------------------------------------------------------------|
B|---------------------------------------------------------------------------|
G|---------------------------------------------------------------------------| x4
D|---2-2-2-2-2-2-2-3-3-3-2-2-2-3-3-3-3-3-3-3-5-5-5-3-3-3---------------------|
A|---3-3-3-3-3-3-3-3-3-3-3-3-3-3-3-3-3-3-3-3-3-3-3-3-3-3---------------------|
E|---------------------------------------------------------------------------|

[ Tab from: http://www.guitartabs.cc/tabs/l/la_dispute/six_tab.html ]
"It is during that return, that pause.."
e|---------------------------------------------------------------------------|
B|---------------------------------------------------------------------------|
G|---------------------------------------------------------------------------|  x16
D|--3h2----------------------------------------------------------------------|
A|------3/5---0/3------------------------------------------------------------|
E|----------3----------------------------------------------------------------|



"There is no fate that cannot be surmounted by scorn..."
e|---------------------------------------------------------------------------|
B|-----------------------------------------------121212-13-13----------------|
G|9-9-9-10-10-10-12-12-12-10-10-10-14-14-14-12-12-------------12-10-10-10----| x4
D|---------------------------------------------------------------------------|
A|---------------------------------------------------------------------------|
E|---------------------------------------------------------------------------|

Well, that's all. I hope you enjoy playing it
Comments