La Dispute - Sad Prayers For Guilty Bodies Chords & Tabs

 

Sad Prayers For Guilty Bodies Chords & Tabs

La Dispute Chords & Tabs

Version: 1 Type: Tab 0 ratings
1 star 2 stars 3 stars 4 stars 5 stars
comments

Sad Prayers For Guilty Bodies Tab

Such a great song off of Somewhere at the Bottom. I was very suprised to see no tabs for 
it. So here you go, enjoy playing this guys!



Intro:

E|-------------------|
B|-------------------|
G|-------------------|
D|-------------------|
A|--5~~~-----0~~~----|
D|--8~~~---/12~~~--\-| x4



Figure 1:

E|-------------------------|
B|-------------------------|
G|----0~----22p3-0----2~---|
D|---3--3-3-----3----3-----|
A|-1-----1----------5------|
D|-------------------------| x4

E|-----------------------------------|
B|-----------------------------------|
G|--5-5----5-5------7-7--9-----------|
D|------7------7----------10-12-10---|
A|-----------------------------------|
D|-----------------------------------| x2

E|----------------------------|
B|----------------------------|
G|---------7777777-9999/1010--|
D|---------xxxxxxx-xxxx/xxxx--|
A|-1~~~~~--5555555-7777/8888--|
D|----------------------------| x2

E|-------------------|
B|-------------------|
G|-77-77-55-77-77-7--|
D|-xx-xx-xx-xx-xx-x--|
A|-55-55-33-55-55-5--|
D|-------------------|




Figure 2:
E|-------------------------------------|
B|------------------------10-10-10-10--|
G|----7~-9\555-7----------99-99-99-99--|
D|-0~-x~-x\xxx-x--5-8-888-88-88-88-88--|
A|-0~-5~-7\333/5--5-8-888--------------|
D|-0~-------------5-8-888--------------| x2
[ Tab from: http://www.guitartabs.cc/tabs/l/la_dispute/sad_prayers_for_guilty_bodies_tab.html ]
E|-----------------------------------------|
B|-----------------------------------------|
G|----7~-9\555-7---------------------------|
D|-0~-x~-x\xxx-x--5-8-888-888-888-888------|
A|-0~-5~-7\333/5--5-8-888-888-888-888------|
D|-0~-------------5-8-888-888-888-888------|

E|-------------------------------------|
B|------------------------10-10-10-10--|
G|----7~-9\555-7----------99-99-99-99--|
D|-0~-x~-x\xxx-x--5-8-888-88-88-88-88--|
A|-0~-5~-7\333/5--5-8-888--------------|
D|-0~-------------5-8-888--------------|

E|---------|
B|---------|
G|---------|
D|-0-x-xx--|
A|-0-x-xx--|
D|-0-x-xx--| x15




Figure 3:
E|-------------------------------------------------------------|
B|-------------------------------------------------------------|
G|----7p6---------------------------7p6------------------------|
D|-0-----8p7--7-7---8-8--7-7-----0-----8p7--7-7---8-8----14/15-|
A|----------8-----10----8-----------------8-----10----/12------|
D|-------------------------------------------------------------|

E|------------------------------|
B|---3--------------------------|
G|-----2-----2-2----3p2----2-2--|
D|-0-------0------3------1------|
A|------------------------------|
D|------------------------------| x4

E|------------------------------|
B|------------------------------|
G|---2-2----2-2----2-2----2-2---|
D|-0------0---------3------3----|
A|---------------3------1-------|
D|------------------------------| x11


Ending:
E|-----------------|
B|-----------------|
G|-----------------|
D|-0~-0~-0~-3~-0~--|
A|-0~-0~-0~-3~-0~--|
D|-0~-0~-0~-3~-0~--|
Comments