La Dispute - New Storms For Older Lovers Chords & Tabs

 

New Storms For Older Lovers Chords & Tabs

La Dispute Chords & Tabs

Version: 2 Type: Tab 0 ratings
1 star 2 stars 3 stars 4 stars 5 stars
comments

New Storms For Older Lovers Tab

Artist: La Dispute
Album: Somewhere At the Bottom of the River Between Vega and Altair
Song: New Storms for Older Lovers

I can thank whoever that made the Tab pro version 2 of this song which i only find
on the Ultimate guitar application on my phone.

This tab is for the lead guitar only.


Figure 1. Just a simple intro

E||--------------------------------------------------------------------|
B||--6---6-6-6-6---6--6-6-6-6---6--6-6-6-6---6--6-6-6-6---6--6-6-6-6---|
G||--7---7-7-7-7---7--7-7-7-7---7--7-7-7-7---7--7-7-7-7---7--7-7-7-7---|
D||--7---7-7-7-7---7--7-7-7-7---7--7-7-7-7---7--7-7-7-7---7--7-7-7-7---|
A||--5---5-5-5-5---5--5-5-5-5---5--5-5-5-5---5--5-5-5-5---5--5-5-5-5---|
D||--0---0-0-0-0---5--5-5-5-5---8--8-8-8-8---8--8-8-8-8---0--0-0-0-0---|

E||----------------------------------|
B||--6---6-6-6-6---6~~~--------------|
G||--7---7-7-7-7---7~~~--------------|
D||--7---7-7-7-7---7~~~--------------|
A||--5---5-5-5-5---5~~~*Pickslide*---|
D||--5---5-5-5-5---8~~~--------------|


Figure 2. Play this Figure two times, but...

E||--------------------------------------------------------------------------|
B||--------------------------------------------------------------------------|
G||---7---7-7-7-7---10---10-10-10-10---14---14-14-14-14---14---14-14-14-14---|
D||---x---x-x-x-x---x----x--x--x--x----x----x--x--x--x----x----x--x--x--x----|
A||---5---5-5-5-5---8----8--8--8--8----12---12-12-12-12---12---12-12-12-12---|
D||--------------------------------------------------------------------------|

                                             play this part on
E||----------------------------------------|---------------------|
B||----------------------------------------|---------------------|
G||---10---10-10-10-10---17---17-17-17-17--|--14---14-14-14-14---|
D||---x----x--x--x--x----x----x--x--x--x---|--x----x--x--x--x----|
A||---8----8--8--8--8----8----8--8--8--8---|--8----8--8--8--8----|
D||----------------------------------------|---------------------|

  the first time only and... then end the second time with this.
E||----------------------|-----------------------------------------|
B||----------------------|-----------------------------------------|
G||---14---14-14-14-14---|---15-15-15-15-15-15-15-15-15-15-15-15---|
D||---x----x--x--x--x----|---x--x--x--x--x--x--x--x--x--x--x--x----|
A||---12---12-12-12-12---|---13-13-13-13-13-13-13-13-13-13-13-13---|
D||----------------------|-----------------------------------------|


Figure 3. Play this figure 2 times but...

   play this part 6 times and then this part 1 time
E||------------------------|-----------------------|
B||---6---6-6-6-6----------|-----------------------|
G||---7---7-7-7-7----------|-----------------------|
D||---7---7-7-7-7----------|---8---8-8-8-8-8-7-3---|
A||---5---5-5-5-5----------|---8---8-8-8-8-8-7-3---|
D||---0---0-0-0-0----------|---8---8-8-8-8-8-7-3---|


Figure 4. Play this figure 2 times

E||-----------------------------------------------------------------------------|
B||-----------------------------------------------------------------------------|
G||-----------------------------------------------------------------------------|
D||---------------------------------------------------------8---8-8-8-8-8-7-3---|
A||------5/12-----5/12-----5/13-----5/13-----5/8-----5/18---8---8-8-8-8-8-7-3---|
D||---0--------0--------0--------0--------0-------0---------8---8-8-8-8-8-7-3---|


Figure 5. Palm mute the last 0's

E||----------------------------------------------|
B||----------------------------------------------|
G||----------------------------------------------|
D||---0-0---0-0---0-0---0-0---0-0---0-0---0*0*---|
A||---0-0---0-0---0-0---0-0---0-0---0-0---0*0*---|
D||---0-0---0-0---0-0---0-0---0-0---0-0---0*0*---|


Figure 6. After the short pause...
[ Tab from: http://www.guitartabs.cc/tabs/l/la_dispute/new_storms_for_older_lovers_tab_ver_2.html ]
E||---------6~~~------------6~~~--------------------|
B||---------9~~~------------9~~~--------------------|
G||---------7~~~------------7~~~--------------------|
D||---0-0~~~~~~~8-8~~~0-0~~~~~~~8-8~~~8-8-8-8-8-8---|
A||---0-0~~~~~~~8-8~~~0-0~~~~~~~8-8~~~8-8-8-8-8-8---|
D||---0-0~~~~~~~8-8~~~0-0~~~~~~~8-8~~~8-8-8-8-8-8---|


Figure 7.

               Either play this part
E||----------------------------------------------------------------------|
B||----------------------------------------------------------------------|
G||-------9-7-5-7-----9-7-5-7---------9-7------9-7-5-7---------9-7-5-7---|
D||---0-0---------0-0---------5-7-0-0-----0-0----------5-7-8-8-----------|
A||----------------------------------------------------------------------|
D||----------------------------------------------------------------------|

                              (It's actually the second guitar that plays )
                              ( the second option but i think variation is)
                              ( more fun to play so i go with this...     )

           5 times, or...          <- play the first part 2 times,
E||-------------------------|-------------------------------------------------|
B||-------------------------|-------10-8-6-10-----10-8-6-10-8-10-------10-8---|
G||-------9-7-----9-7-5-7---|-------------------------------------------------|
D||---8-8-----8-8-----------|---0-0-----------0-0------------------0-0--------|
A||-------------------------|-------------------------------------------------|
D||-------------------------|-------------------------------------------------|

        then this part part one time till the |,
E||---------------------------------------------------------------------------|
B||-------10-8-6-10-----10-8-6-10-8-10-----10-8-6-10-----10-8-----10-8-6-10---|
G||---------------------------------------------------------------------------|
D||---0-0-----------0-0----------------8-8-----------8-8------8-8-------------|
A||---------------------------------------------------------------------------|
D||---------------------------------------------------------------------------|

       and now play this last part 2 times till the next |.
E||--------------10------------10-8-10---------------------10---|
B||-------10-8-6--------10-8-6-------------10-8-----10-8-6------|
G||-------------------------------------------------------------|
D||---0-0-----------0-0----------------0-0------0-0-------------|
A||-------------------------------------------------------------|
D||-------------------------------------------------------------|

E||--------------10-8-10------------10---------------------10---|
B||-------10-8-6-------------10-8-6--------10-8-----10-8-6------|
G||-------------------------------------------------------------|
D||---0-0----------------8-8-----------8-8------8-8-------------|
A||-------------------------------------------------------------|
D||-------------------------------------------------------------|


Figure 8...

E||-----------------------------------|
B||-----------------------------------|
G||-----------------------------------|
D||-------3~~~~~~~3~~~~~~~3~~~~~~~3~~~|
A||-----0~~~~~~~1~~~~~~~0~~~~~~~1~~~~~|
D||---0~~~~~~~0~~~~~~~0~~~~~~~0~~~~~~~|

Figure 9.

             Play this 6 times
E||-----------------------------------------|
B||-----------------------------------------|
G||-----------------------------------------|
D||---0-----0-3-5-7-5-3-0-3-5-7-5-3-0-3-5---|
A||-----3-1---------------------------------|
D||-----------------------------------------|


Figure 10.

   This 2 times and then..     this one time.         End the song with this.
           Repeat this pattern 3 times.
E||---------------------|---------------------------|-----------|
B||---------------------|---------------------------|-----------|
G||---------------------|---------------------------|-----------|
D||-----------------1~~~|-------------------1~~~3~~~|-----------|
A||---5-5-5~~~5-5-5-1~~~|---5-5-5~~~5-5-5~~~1~~~3~~~|---5-5-5~~~|
D||---0-5-8~~~0-5-8-1~~~|---0-5-8~~~0-5-8~~~1~~~3~~~|---0-5-8~~~|
Comments