L7 - Pretend Were Dead Chords & Tabs

 

Pretend Were Dead Chords & Tabs

L7 Chords & Tabs

Version: 4 Type: Tab

Pretend Were Dead Tab

L7
Pretend were dead
Bricks are heavy/ GTA San Andreas

Tabbed by wangmaster

decent song, but their only good one. every other tab sucked.

gtr 1
[ Tab from: http://www.guitartabs.cc/tabs/l/l7/pretend_were_dead_tab_ver_4.html ]
e|--------------------------------|
B|--------------------------------|
G|--------------------------------|
D|--9-9-x-x-2-2-x-x-7-7-7-4-4-4-4-|
A|--9-9-x-x-2-2-x-x-7-7-7-4-4-4-4-|
E|--7-7-x-x-0-0-x-x-5-5-0-2-0-2-0-|

gtr 2

e|-----------------------------------|
B|--------------------2--------------|
G|------4-------1---2---2------------|
D|--4-4---4-2-2---2-------4--2--4--2-|
A|-----------------------------------|
E|-----------------------------------|

repeat till you get ill. good song, and this is the best way you can play it.