L7 - Little One Chords & Tabs

 

Little One Chords & Tabs

L7 Chords & Tabs

Version: 1 Type: Tab 0 ratings
1 star 2 stars 3 stars 4 stars 5 stars
comments

Little One Tab

	    LITTLE ONE
		L7
	From: Slap Happy, 



[ Tab from: http://www.guitartabs.cc/tabs/l/l7/little_one_tab.html ]
Strum style is a country twang.
By that I mean strum A chord up once then A chord Down once.
You strum like that the whole way thru the song.
INTRO:
E----------------------------------------
B----------------------------------------
G----------------------------------------
D----------------------------------------
A-7--7-7-7--7-7--4-4-4--7--7-7-7--7--9-9-
E-5--5-5-5--5-5--2-2-2--5--5-5-5--5--7-7-

CHORUS:
E---------------------------------------
B---------------------------------------
G---------------------------------------
D---------------------------------------
A-7--7-7-7--7-7--4-4-4--9-9-9-11-7-7-7--
E-5--5-5-5--5-5--2-2-2--7-7-7-9--5-5-5--

This is the note they bend before solo.
E----
B----
G----
D----
A-7^-bend hard
E----
then it's the chorus again,
I'm unsure about solo?

Comments