Kyuss - Un Sandpiper Chords & Tabs

 

Un Sandpiper Chords & Tabs

Kyuss Chords & Tabs

Version: 1 Type: Bass Tab 0 ratings
1 star 2 stars 3 stars 4 stars 5 stars
comments

Un Sandpiper Bass Tab

Here`s  the bass tab for Kyuss'  "un sandpiper" from their best of record.
It's not complete but you've got an idea of it.
Great song to improvise!

Intro/Main Rriff:

G---------10p8-----------------------
D--------------10-8------------------
A--8--8-8-----------8--8-8-8------8-8
E-----------------------------6h8----

 ----------10p8----------------------
 ---------------10-8-----------------
 -8--8-8-8-----------8--8-8-8----8-8 etc.
 -----------------------------6h8---



some bits of the verse/chorus sections:

G--------------------------------------
D--------------------------------------
A--8\-----------------8\---------------
E-----1--1-1--1--1-x-----1--1-1--1--1-x
[ Tab from: http://www.guitartabs.cc/tabs/k/kyuss/un_sandpiper_btab.html ]
 -------------------8-10--10-10-10-10p8----------
 -----------8h10-10---------------------10-8-----
 -8\-----------------------------------------8\-- etc.
 ----1--1-1-------------------------------------1



sometimes during the guitar solo he plays something like that:

G-------------------8-10--10-10-10-10p8--------------
D-----------8h10-10---------------------10-8---------
A--8--8-8-8----------------------------------8--8-8-8
E----------------------------------------------------

 ---------8-10--10-10-10-10p8--------------
 -8h10-10---------------------10-8---------
 ----------------------------------8--8-8-8 etc.
 -----------------------------------------


Please send any comments and corrections to dirk_von_lotzow@yahoo.de


Comments