Kyuss - Tangy Zizzle Chords & Tabs

 

Tangy Zizzle Chords & Tabs

Kyuss Chords & Tabs

Version: 1 Type: Bass Tab 0 ratings
1 star 2 stars 3 stars 4 stars 5 stars
comments

Tangy Zizzle Bass Tab

Tangy Zizzle - Kyuss
Tabbed by smb (smb@tbd.yi.org)

This isn't an exact note-for-note tab of Tangy Zizzle.
I've just laid out variations on the riffs for you to select what you like and put in
the order you want. Kyuss play in C F Bb Eb, but it sounds fine in E A D G if you're
too pussy to tune down for that heavy sound! "Yeah, put in in gear baby! Hell yeah,
that's what I like about you baby, you're always on time!"

Riff 1 variations

|----------------------------|  x2
|-3-3-3--3-3-3---------------|  This sounds good as the intro,
|---------------5-5-5--6-6-6-|  or the next one if you prefer.
|----------------------------|

|----------------------------|
|----------------------------|  Could be used for intro
|-3-3-3--3-3-3--5-5-5--6-6-6-|  or mix-and-match these for
|----------------------------|  the first part of the song

|----------------------------|
|-3-3-3--3-3-3--6-6-6--6-6-6-|
|----------------------------|
|----------------------------|

|----------------------------|
|----------------------------|
|---------------5-5-5--6-6-6-|
|-1-1-1--1-1-1---------------|
[ Tab from: http://www.guitartabs.cc/tabs/k/kyuss/tangy_zizzle_btab.html ]
|----------------------------|
|----------------------------|
|----------------------------|
|-1-1-1--1-1-1--4-4-4--4-4-4-|

These following aren't what Kyuss play but could be used for variety.

|----------------------------|  
|----------------------------|  Sounds pretty good
|---------------5-5-5--------|
|-1-1-1--1-1-1---------4-4-4-|

|----------------------------|
|----------------------------|
|-3-3-3--3-3-3--5-5-5--------|
|----------------------4-4-4-|

|----------------------------|
|-3-3-3--3-3-3--6-6-6--------|
|----------------------6-6-6-|
|----------------------------|

Riff 2 variations

|----------------------------|
|----------------------------|  Sounds great and looks good
|-------------8-8--6-6--5-5--|  and is real easy. Score!
|-1-1-1//////----------------|

|----------------------------|
|----------------------------|
|-3-3-3//////-8-8--6-6--5-5--|
|----------------------------|

|----------------------------|
|------------10-10--8-8--7-7-|
|-3-3-3//////----------------|
|----------------------------|

Order played:

riff 1 x4 (intro)
riff 1 x14
riff 2 x4
riff 1 x16
riff 2 x3
Then..

|----------------------------|---|
|----------------------------|---|
|-------------8-8--6-6--5-5--|---|
|-1-1-1//////----------------|-1-|

Please tell me what you think. smboyce@gmail.com
Comments