Kyuss - Isolation Desolation Chords & Tabs

 

Isolation Desolation Chords & Tabs

Kyuss Chords & Tabs

Version: 1 Type: Tab 0 ratings
1 star 2 stars 3 stars 4 stars 5 stars
comments

Isolation Desolation Tab

   
-______________________________-
-|Kyuss - Isolation Desolation|-
-|    Sons Of Kyuss (1990)    |-
-|                            |-
-|Vocals - John Garcia        |-
-|Guitar - Josh Homme         |-
-|Bass   - Chris Cockrell     |-
-|Drums  - Brant Bjork        |-
-______________________________-


tabbed by Marek Veleba (badhabit@atlas.sk)



Tuning - C# F# B E G# C#

p = pull-off



Acoustic Part:

1.
C#|--------------------------------------|
G#|--------------------------------------|
 E|--------0-----------------------------|
 B|---2---2-2-0--0--0-0--0--0------------|
F#|--2-2-2---2--2--2----2--2-------------|
C#|-0---0------3--3--3-2--2--320---------|

2.
C#|--------------------------------------|
G#|--------------------------------------|
 E|--------------------------------------|
 B|---2---220p2p0--0--0-0--0--0----------|
F#|--2-2-2--------2--2----2--2-----------|
C#|-----0--------3--3--3-2--2--320-------|
[ Tab from: http://www.guitartabs.cc/tabs/k/kyuss/isolation_desolation_tab.html ]
3.
C#|--------------------------------------|
G#|--------0-----------------------------|
 E|---------0----------------------------|
 B|---2------2--0--0----0--0-------------|
F#|--2-2-2-----2--2----2--2--------------|
C#|-----0-----3--3--3-2--2--320----------|

4.
C#|--------------------------------------|
G#|--------------------------------------|
 E|--------------------------------------|
 B|---2---220p2p0--0--0-0--0--0----------|
F#|--2-2-2--------2--2----2--2-----------|
C#|-----0--------3--3--3-2--2--320-------|

5.
C#|--------------------------------------|
G#|--------0-----------------------------|
 E|---------0----------------------------|
 B|---2---------0--0-0--0--0-------------|
F#|--2-2-2-----2--2----2--2--------------|
C#|-----0-----3--3--3-2--2--320----------|

6.
C#|-------------0--0---------------------|
G#|--------0-----------------------------|
 E|---------0----------------------------|
 B|---2------2---------------------------|
F#|--2-2-2-----2--2----------------------|
C#|-----0-----3--3--32222320-------------|
Comments