Kyuss - Catamaran Chords & Tabs

 

Catamaran Chords & Tabs

Kyuss Chords & Tabs

Version: 1 Type: Bass Tab 0 ratings
1 star 2 stars 3 stars 4 stars 5 stars
comments

Catamaran Bass Tab

group: Kyuss
song:  Catamaran 
album: ...And the circus leaves town

Bass tab

Riff 1
--------8-----------------------------------------------------
-----10---10--------------------------------------------------
(/)8---------10-----------------------------------------------
----------------11-11-11-11--8-8-8-8--8--4444-----------------


[ Tab from: http://www.guitartabs.cc/tabs/k/kyuss/catamaran_btab.html ]
--------8-----------------------------------------------------
-----10---10--------------------------------------------------
---8---------10-----------------8------------------------------
----------------11-11-11-11--11------------------------------


Riff 2
--------------------------------------------------------------
--------------------------------------------------------------
------/13--13-13-13-(13)-6------------------------------------
-1/13---------------------------------------------------------


Riff 3
--------------------------------------------------------------
--------------------------------------------------------------
---------/6-----------------------------------------------------
--/8--2------2-----------------------------------------------------

13/7/98
Geertj@sin.khk.be

Comments