Kyo - Contact Chords & Tabs

 

Contact Chords & Tabs

Kyo Chords & Tabs

Version: 1 Type: Tab

Contact Tab

   
Intro:

E|---------------------------------------|
B|---------------------------------------|
G|---------------------------------------|
D|-4-4-xx-4--4-4--2-2~--4-4-xx-4--4-4----|  x2
A|-4-4-xx-4--4-4--2-2~--4-4-xx-4--4-4----|
E|-2-2-xx-2--2-2--------2-2-xx-2--2-2----|

End of intro:

E|-----|
B|-----|
G|-7~--|
D|-7~--|
A|-5~--|
E|-----|

Verse:
[ Tab from: http://www.guitartabs.cc/tabs/k/kyo/contact_tab.html ]
Just play these chords: F#5 D5 H5.

Bridge (some as intro)

Chorus:

E|------------------|
B|------------------|
G|------------------|
D|-7~--11~--9~--7~--|
A|-5~---9~--9~--7~--|
E|----------7~--5~--|

CHORDS:

   F#5  D5  H5
E|-------------|
B|-------------|
G|------7------|
D|--4---7---9--|
A|--4---5---9--|
E|--2-------7--|