Kweller Ben - Wantin' Her Again Chords & Tabs

 

Wantin' Her Again Chords & Tabs

Kweller Ben Chords & Tabs

Version: 1 Type: Tab 0 ratings
1 star 2 stars 3 stars 4 stars 5 stars
comments

Wantin' Her Again Tab

   
#----------------------------------PLEASE NOTE---------------------------------#
#This file is the author's own work and represents their interpretation of the #
#song. You may only use this file for private study, scholarship, or research. #
#------------------------------------------------------------------------------#

TABBED BY:  ANDY MARTIN   col_rhythm@hotmail.com

Artist: Ben Kweller
Album: (unreleased)
Song Title: Wantin' Her Again

Chords:  G     320033
         D     X00232
         C     032010
         Bm    X24432
         G7    320001
         Cadd5 032013 (to save space, it'll be C5)
         Cm    X35543


Intro:
[ Tab from: http://www.guitartabs.cc/tabs/k/kweller_ben/wantin_her_again_tab.html ]
    G                   D           G
e:--3---------3---3-3-3-2-2-2-2-2-2-3-3-3-----3-3-3-----------
B:--3---------3---3-3-3-3-3-3-3-3-3-3-3-3-----3-3-3-----------
G:--0---------0---0-0-0-2-2-2-2-2-2-0-0-0-0---0-0-0-----------       
D:--0---------0---0-0-0-0-0-0-0-0-0-0-0-0-0h2-2-2-0-----------
A:--2---------2---2-2-2-0-0-0-0-0-0-2-2-2-----0-0-2-----------
E:--3-0-1-2-3-3---3-3-3-------------3-3-3-----3-3-3-0-1-2-3---

    G         D           G            
e:--3---3-3-3-2-2-2-2-2-2-3-3-3-----3-3-3---------------------------
B:--3---3-3-3-3-3-3-3-3-3-3-3-3-----3-3-3---------------------------
G:--0---0-0-0-2-2-2-2-2-2-0-0-0-0---0-0-0-(keep strumming G chord)--
D:--0---0-0-0-0-0-0-0-0-0-0-0-0-0h2-2-2-0---------------------------
A:--2---2-2-2-0-0-0-0-0-0-2-2-2-----0-0-2---------------------------
E:--3---3-3-3-------------3-3-3-----3-3-3---------------------------


NOTE:  the * will indicate the hammer on the G chord
       the # will indicate the walk up the low E string (E:-0-1-2-3)
       the % will indicate the walk up the A string to the D string. 
            i'll tab the % out the first time.


Outro: 
                          G
e:--0---------------------3-----
B:--4(bend)-3-0--0-----0--3-----
G:------------4--4-3-2-0--0-----
D:------------------------0-----
A:------------------------2-----
E:------------------------3-----
Comments