Kutless - Your Touch Chords & Tabs

 

Your Touch Chords & Tabs

Kutless Chords & Tabs

Version: 4 Type: Tab 0 ratings
1 star 2 stars 3 stars 4 stars 5 stars
comments

Your Touch Tab

Kutless – Your Touch

dropped D tuning
intro/verse:
|--------------------------------3----------1-------------|
|---------------------1-----------------------------------|
|--------3----------3---3------5---5------3---3-----------|
|-----5----5-----3-----------5----------3-----------------|
|---5----------1-----------3----------1-------------------|
|-5-------------------------------------------------------|
|---------------------------------------------------------|
[ Tab from: http://www.guitartabs.cc/tabs/k/kutless/your_touch_tab_ver_4.html ]
pre-chorus:
|---------------------------------------------------------|
|---------------------------------------------------------|
|-------------------------------------5-5-5-5-5-5---------|
|-1-1-1-3-3-3-5-5-5-5-5-5-1-1-1-3-3-3-5-5-5-5-5-5---------|
|-1-1-1-3-3-3-5-5-5-5-5-5-1-1-1-3-3-3-3-3-3-3-3-3---------|
|-1-1-1-3-3-3-5-5-5-5-5-5-1-1-1-3-3-3---------------------|

Chorus
|--------------------------------------|
|--------------------------------------| 2x
|---------3-3-3-3----------------------|
|-5-5-5-5-3-3-3-3-3-3-3-3-3-3-x-x-1-5--|
|-5-5-5-5-1-1-1-1-3-3-3-3-3-3-x-x-1-5--|
|-5-5-5-5---------3-3-3-3-3-3-x-x-1-5--|

Intro/verse
Pre-Chorus
Chorus x3

Interlude
|--------|
|--------|
|---3-----|2x
|-5-1-3--|
|-5-1-3--|
|-5---3--|

Bridge
|-------------------------------|
|-------------------------------|
|-------------------------------|2X
|0-0-0-0-0-0-0-0-0-0------------|
|0-0-0-0-0-0-0-0-0-0----3-------|
|0-0-0-0-0-0-0-0-0-0--0---5-3-5-|

|---------------------|
|---------------------| X10
|---------------------|
|-0-0-5-5-5-0-0-0-5-3-|
|-0-0-5-5-5-0-0-0-5-3-|
|-0-0-5-5-5-0-0-0-5-3-|

Pre-Chorus
Chorus…
Comments