Kutless - We Fall Down Chords & Tabs

 

We Fall Down Chords & Tabs

Kutless Chords & Tabs

Version: 3 Type: Tab 0 ratings
1 star 2 stars 3 stars 4 stars 5 stars
comments

We Fall Down Tab

   
----------------------------------------------------------------------------
			     WE FALL DOWN - Kutless
----------------------------------------------------------------------------
Tabbed by: No 1
Tuning: Standard (EADGBe)

Intro (Distortion)

e|---1---4---2---1---1-------1---2---|X1
B|-2---2---------------2---4---------|
G|-----------------------------------|
D|-----------------------------------|
A|-----------------------------------|
E|-----------------------------------|

e|-1---4---2---1---1-------1---2-----|X3
B|---2---------------2---4-----------|
G|-----------------------------------|
D|-----------------------------------|
A|-----------------------------------|
E|-----------------------------------|


Verse (Acoustic)
   
 C#               G#      F#                                
 We fall down, we lay our crowns, 
        B       G#
 at the feet of Jesus
     C#               G#        F#                              
 The greatness of his mercy and love, 
        B       C#
 at the feet of Jesus


Chorus (Distortion)
[ Tab from: http://www.guitartabs.cc/tabs/k/kutless/we_fall_down_tab_ver_3.html ]
             B     F#    C#
  And we cry Holy, Holy, Holy
         B     F#    C#                                    
  We cry Holy, Holy, Holy
         B     F#    C#        
  We cry Holy, Holy, Holy
         B     F#    C#                 
  Is the Lamb


Solo (Distortion)

e|---1---4---2---1---1-------1---2---1---4---2---1---1-------1--2---|
B|-2---2---------------2---4-----------2---------------2---4--------|
G|------------------------------------------------------------------|
D|------------------------------------------------------------------|
A|------------------------------------------------------------------|
E|------------------------------------------------------------------|

e|-1/2\1---------------------1/2\1--------------1-4-9-8-6h8p6-4-2-1-----|
B|-------2-2-----2-----------------2-2------2--2-2-2----------------2---|
G|-----------3-3---3---1-1-------------3-3------------------------------|
D|----------------------------------------------------------------------|
A|----------------------------------------------------------------------|
E|----------------------------------------------------------------------|

Intro
Verse
Chorus
Verse
Chorus
Solo
Chorus

| /  slide up
| \  slide down
| h  hammer-on
| p  pull-off
| ~  vibrato
| +  harmonic
| x  Mute note
============================================================================
Comments