Kutless - Treason Chords & Tabs

 

Treason Chords & Tabs

Kutless Chords & Tabs

Version: 1 Type: Tab 0 ratings
1 star 2 stars 3 stars 4 stars 5 stars
comments

Treason Tab

   
Kutless-Treason
Tabbed by RocknSk8a
HardRockr@hotmail.com


Drop C# Tuning C#-G#-C#-F#-A#-D#

Intro
D#[-------------------------------------]
A#[-------------------------------------]
F#[-------------------------------------]
C#[-0--4--7-0--4--7-0--4--7-0--4--2h4-2-]
G#[-0--4----0--4----0--4----0--4--2h4-2-]x2
C#[-0--4----0--4----0--4----0--4--2h4-2-]

Verse
D#[--------]
A#[--------]
F#[--------]
C#[-2----0-]
G#[-2----0-]
C#[-2----0-]

Then
D#[-------------------------------------]
A#[-------------------------------------]
F#[-------------------------------------]
C#[-0--4--7-0--4--7-0--4--7-0--4--2h4-2-]
G#[-0--4----0--4----0--4----0--4--2h4-2-]
C#[-0--4----0--4----0--4----0--4--2h4-2-]

D#[--------]
A#[--------]
F#[--------]
C#[-2----0-]
G#[-2----0-]
C#[-2----0-]

Then
C#[-0--4--7-0--4--7-0--4--7-0--4--2h4-2-]
G#[-0--4----0--4----0--4----0--4--2h4-2-]
C#[-0--4----0--4----0--4----0--4--2h4-2-]

D#[--------]
A#[--------]
F#[--------]
C#[-2----0-]
G#[-2----0-]
C#[-2----0-]

Chorus
D#[-------------------------------]
A#[-------------------------------]
F#[-------------------------------]
C#[-4----7----0----7/7-9-9--7/7-2-]
G#[-4----7----0--------9-9------2-]x2
C#[-4----7----0--------9-9------2-]

Intro
Verse
Chorus
[ Tab from: http://www.guitartabs.cc/tabs/k/kutless/treason_tab.html ]



Bridge
D#[-------------------------------------]
A#[-------------------------------------]
F#[-------------------------------------]
C#[-4------0--4------0--4------0--4-xxx-]
G#[-4--5h4-0--4--5h4-0--4--5h4-0--4-xxx-]
C#[-4------0--4------0--4------0--4-xxx-]

Then
D#[-----------------------------------------------------------------------]
A#[-----------------------------------------------------------------------]
F#[-----------------------------------------------------------------------]
C#[-4-4h5-4--4-4h5-4--4-4h5-4--7-7-2-2--4-4h5-4--4-4h5-4--4-4h5-4--9-9xx0-]
G#[-4-4h5-4--4-4h5-4--4-4h5-4--7-7-2-2--4-4h5-4--4-4h5-4--4-4h5-4--9-9xx0-]
C#[-4-4h5-4--4-4h5-4--4-4h5-4--7-7-2-2--4-4h5-4--4-4h5-4--4-4h5-4--9-9xx0-]



Pre-Chorus
D#[--------]
A#[--------]
F#[--------]
C#[-2----0-]
G#[-2----0-]
C#[-2----0-]

Chorus
D#[-------------------------------]
A#[-------------------------------]
F#[-------------------------------]
C#[-4----7----0----7/7-9-9--7/7-2-]
G#[-4----7----0--------9-9------2-]x4
C#[-4----7----0--------9-9------2-]

Outro
D#[-------------------------------------]
A#[-------------------------------------]
F#[-------------------------------------]
C#[-0--4--7-0--4--7-0--4--7-0--4--2h4-2-]
G#[-0--4----0--4----0--4----0--4--2h4-2-]x2
C#[-0--4----0--4----0--4----0--4--2h4-2-]

HAVE FUN!!!
Comments