Kutless - Sea Of Faces Chords & Tabs

 

Sea Of Faces Chords & Tabs

Kutless Chords & Tabs

Version: 1 Type: Tab 0 ratings
1 star 2 stars 3 stars 4 stars 5 stars
comments

Sea Of Faces Tab

   
lyrics included.  enjoy!

tuning: drop d for all gutiars

intro: guitar 1 (acoustic)
e-1-11-1-11-1--1-11-1-11-1--5-55-5-66-6--1-11-1-11-1->
B-1-11-1-11-1--4-44-4-44-4--8-88-8-88-8--4-44-4-44-4->
G-3-33-3-33-3--3-33-3-33-3--7-77-7-77-7--3-33-3-33-3->
D-3-33-3-33-3--1-11-1-11-1--5-55-5-55-5--1-11-1-11-1->
A-1-11-1-11-1---------------5-55-5-55-5--1-11-1-11-1->
D---------------------------5-55-5-55-5--1-11-1-11-1->

verse 1: intro repeated twice
I see the city lights all around me Everyone's obscure Ten million people
each with their problems Why should anyone care

pre-chorus: guitar 2 (slightly distorted)
e----------------------------->
B----------------------------->
G----------------------------->
D-5-5-5-8-8-8-1-1-1-1-1-1-1-1->
A-5-5-5-8-8-8-1-1-1-1-1-1-1-1->
D-5-5-5-8-8-8-1-1-1-1-1-1-1-1->
And in Your eyes I can see

chorus: guitar 3 (more distorted)
e------------------------------------------------------------->
B------------------------------------------------------------->
G------------------------------------------------------------->
D-8888-3333-1-1++1-555-3333-8888-3333-1-1++1-555-3333-8~~----->
A-8888-3333-1-1++1-555-3333-8888-3333-1-1++1-555-3333-8~~----->
D-8888-3333-1-1++1-555-3333-8888-3333-1-1++1-555-3333-8~~----->
I am not just a man, vastly lost in this world Lost in a Sea of Faces Your
body's the bread, Your blood is the wine Because you traded Your life for
mine

repeat intro

verse 2: same as verse 1 tab
Sometimes my life it feels so trivial Immersed in the greatness of space
Yet somehow you still find the time for me It's then You show me Your love

pre-chorus 2: same as pre-chorus 1 played twice
And In Your eyes I can see And in Your arms I will be yeah

repeat chorus

bridge:
If only my one heart Was all you'd gain from all it cost Well I 
[ Tab from: http://www.guitartabs.cc/tabs/k/kutless/sea_of_faces_tab.html ]
guitar 3 (r=10th fret, s=13th fret, y=15th fret)
e-------------------------------------------->
B-------------------------------------------->
G-------------------------------------------->
D-++55555-888888-rrrrrr-ssssss-yyyyyy-8~~---->
A-++55555-888888-rrrrrr-yyyyyy-yyyyyy-8~~---->
D-++55555-888888-rrrrrr-ssssss-yyyyyy-8~~---->
know you would have still been a man With a reason To willingly offer your
life

chorus 3:
          guitar 4 (another acoustic)
e--------------------------------------------------------->
B--------------------------------------------------------->
G--------------------------------------------------------->
D-----3~~---0--------------------------------------------->
A--------------3~~---1----0----------1---------------1~~-->
D---------------------------1~~-------1--5-5-5-3-3-3------>

          guitar 1
e-1-11-1-11-1--1-11-1-11-1--5-55-5-66-6--1-11-1-11-1-->
B-1-11-1-11-1--4-44-4-44-4--8-88-8-88-8--4-44-4-44-4-->
G-3-33-3-33-3--3-33-3-33-3--7-77-7-77-7--3-33-3-33-3-->
D-3-33-3-33-3--1-11-1-11-1--5-55-5-55-5--1-11-1-11-1-->
A-1-11-1-11-1---------------5-55-5-55-5--1-11-1-11-1-->
D---------------------------5-55-5-55-5--1-11-1-11-1-->

          guitar 3
e----------------------------------------------------->
B----------------------------------------------------->
G----------------------------------------------------->
D----------------------------------------------3-3-3-->
A----------------------------------------------3-3-3-->
D----------------------------------------------3-3-3-->
I am not just a man, vastly lost in this world Lost in a Sea of Faces

e---------------------------->
B---------------------------->
G---------------------------->
D-8888-3333-1-1++1-555-3333-->
A-8888-3333-1-1++1-555-3333-->
D-8888-3333-1-1++1-555-3333-->
Your body's the bread, Your blood is the wine Because you traded Your life
for mine

repeat first chorus

outro:
e------------------------->
B------------------------->
G------------------------->
D-rrrrr-sssss-yyyyy-8~~--->
A-rrrrr-sssss-yyyyy-8~~--->
D-rrrrr-sssss-yyyyy-8~~--->
Just one in a million faces
Comments