Kutless - Sea Of Faces Chords & Tabs

 

Sea Of Faces Chords & Tabs

Kutless Chords & Tabs

Version: 1 Type: Bass Tab 0 ratings
1 star 2 stars 3 stars 4 stars 5 stars
comments

Sea Of Faces Bass Tab

Hey everybody, here's my take on "Sea of Faces"  A great song.

Chorus:

In your eyes I can see...
G--------------------------------------------------------|
D--------------------------------------------------------|
A--------------1-1---------------------------------------|
E---1-1-1--3-3-------------------------------------------|

I am not just a man...
G--------------------------------------------------------|
D---------------3---3---3---1---1---1--------------------|
A---1---1---1--------------------------------------------|
E---------------------------------------3-3-3-3-1-1-1-1--|  x2

Verse:
[ Tab from: http://www.guitartabs.cc/tabs/k/kutless/sea_of_faces_btab.html ]
...     Sometimes my life...
G--------------------------------------------------------|
D---------------1---1---1---5--8p7-8--1---1---1----------|
A---1---1---1--------------------------------------------|
E--------------------------------------------------------|  x3

Bridge:

Well I know...
G---------------------------------------------------------------------|
D-----------------------------------------------------1-1-1-1-3-3-3-3-|
A---------------------1-1-1-1-1-1-1-1-3-3-3-3-3-3-3-3-----------------|
E---3-3-3-3-3-3-3-3-3-------------------------------------------------|

Solo: (follows bridge)
I am not just a man...
G---------------------------------------------------------------------|
D-------15--12-----------------8--------------------------------------|
A---13----------15--13--12--6-----6--10-10-10-10-12-12-13-13----------|
E---------------------------------------------------------------------|
Then back into the normal chorus.
You'll have to listen to get the beat for the solo.

And there you have it,  it's not perfect but it's pretty close I think.
Comments