Kutless - Saved Chords & Tabs

 

Saved Chords & Tabs

Kutless Chords & Tabs

Version: 3 Type: Tab 0 ratings
1 star 2 stars 3 stars 4 stars 5 stars
comments

Saved Tab

   
----------------------------------------------------------------------------
			     Saved - Kutless
----------------------------------------------------------------------------
Tabbed by: Max Andersen
Email: deckrider@hotmail.com
Key:
| /  slide up
| \  slide down
| .  palm mute
| x  Mute note
Tuning: Drop-D

riff 1a
e|--------10---------12-12---------|
B|------0---------10-------10------|
G|---11--------11-------------11---|
D|-9---------9---------------------|
A|---------------------------------|
D|---------------------------------|

riff 1b
e|--------10--|
B|------0-----|
G|---11-------|
D|-9----------|
A|------------|
D|------------|

riff 2
e|------------------------------------|
B|------------------------------------|
G|------------------------------------|
D|-----4--------5----------9----------|
A|---2---2----5------9---9---9---9----|
D|-2--------5-----5----9-------9---9--|
[ Tab from: http://www.guitartabs.cc/tabs/k/kutless/saved_tab_ver_3.html ]
riff 3
e|--------------------------------|
B|--------------------------------|
G|--------------------------------|
D|-2--2-2-5-5-5-5-9-9-9-9-9-9-9-9-|
A|-2--2-2-5-5-5-5-9-9-9-9-9-9-9-9-|
D|-2--2-2-5-5-5-5-9-9-9-9-9-9-9-9-|
 
riff 4
e|----------------------------------------------------|
B|----------------------------------------------------|
G|----------------------------------------------------|
D|-2--2-2-2-2/5-5-5-5--5-5-0--0-0-0--0-0-7-7-7-5-5-7\-|
A|-2--2-2-2-2/5-5-5-5--5-5-0--0-0-0--0-0-7-7-7-5-5-7\-|
D|-2--2-2-2-2/5-5-5-5--5-5-0--0-0-0--0-0-7-7-7-5-5-7\-|
      . .                     . .    

riff 5
e|-0-0-0-0-----0------------|
B|----------3----0-0-0-0-3--|
G|--------------------------|
D|--------------------------|
A|--------------------------|
D|--------------------------|

riff 6
e|----------|
B|----------|
G|----------|
D|-2x-2x-2x-|
A|-2x-2x-2x-|
D|-2x-2x-2x-|

Intro:
riff 1a x4
Verse 1:
riff 1a x4
riff 2 x6
riff 3 x2
Chorus:
riff 4 x2 
Verse 2:
riff 2 x6
riff 3 x2
Play chorus x2
Interlude:
riff 1a x9
riff 1b
riff 4 x8
riff 5 x4 (second gtr. plays this on the fifth repeat of riff 4)
Outro:
riff 6
============================================================================
Comments