Kutless - Run Chords & Tabs

 

Run Chords & Tabs

Kutless Chords & Tabs

Version: 2 Type: Tab 0 ratings
1 star 2 stars 3 stars 4 stars 5 stars
comments

Run Tab

   
----------------------------------------------------------------------------
			     Run - Kutless
----------------------------------------------------------------------------
Tabbed by: Max Andersen
Email: deckrider@hotmail.com
Tunning: Regular E

riff 1 
e|-0--2--0-----------------0--2--2--|
B|-1--2--3---------3-------1--2--3--|
G|-0--0--0-----0-----0-----0--0--2--|
D|-2--0--4---4---4-----4---2--0--0--|
A|-3--2--5-----------------3--2--0--|
E|----------------------------------|

riff 2 
e|-------------------------------|
B|-------------------------------|
G|-----0---0-------0---0-------0-|
D|---2---2-------2---2-------4---|
A|-----------0h3---------3/5-----|
E|-0-----------------------------|

ending 1
e|---------------|
B|--------3------|
G|----------0----|
D|--4---4-----4--|
A|5---5----------|
E|---------------|

ending 2 
e|-----|
B|---3-|
G|-----|
D|-4---|
A|-----|
E|-----|

ending 3
e|----------------|
B|----------------|
G|---------0------|
D|---4---4---4----|
A|-5---5-------5--|
E|----------------|

ending 4
e|-----------------|
B|-----------3-----|
G|-----0-------0---|
D|-4-----4-------4-|
A|---5-----5-------|
E|-----------------|

ending 5
e|-----------------|
B|-----3-----------|
G|-------0---0-----|
D|-4-------4---4---|
A|---5-----------5-|
E|-----------------|
[ Tab from: http://www.guitartabs.cc/tabs/k/kutless/run_tab_ver_2.html ]
riff 3                 first ending
e|---------------------|-----------|
B|---------------------|-----------|
G|---------------------|-----------|
D|-10-10-10-10-5-5-5-5-|-0-0-0-0-0-|
A|-10-10-10-10-5-5-5-5-|-0-0-0-0-0-|
D|-10-10-10-10-5-5-5-5-|-0-0-0-0-0-|

second ending
e|-----------------|
B|-----------------|
G|-----------------|
D|-0-0-0-0-0-0-0-0-|
A|-0-0-0-0-0-0-0-0-|
D|-0-0-0-0-0-0-0-0-|
     . .   . .

third ending
e|---|
B|---|
G|---|
D|-0-|
A|-0-|
D|-0-|
      
riff 4                                              
e|-0---0--0---2---0---0---0-----------------|
B|-1---0--1---2---1---0---3---------3-------|
G|-2---0--0---0---2---0---0-----0-----0-----|
D|-2---2--2---0---2---2---4---4---4-----4---|
A|-0---2--3---2---0---2---5-----------------|
E|------------------------------------------|


riff 5
e|--------------------------------------|
B|------1-------0-----------------------|
G|o-------2-------0-----0---------0-----|
D|o---2-------2-------2---2---------0---|
A|--0---------------3-------3---2-----2-|
E|----------0-----------------3---------|


e|-----------------------------------------|
B|------1---------------------------3------|
G|--------2-----0---0-----0-----------0---o|
D|----2-------2---2-----4-----4---4-----4-o|
A|--0-----------------5-----5---5----------|
E|----------0------------------------------|


Thats all!!
============================================================================
Comments