Kutless - Let You In Chords & Tabs

 

Let You In Chords & Tabs

Kutless Chords & Tabs

Version: 1 Type: Tab 0 ratings
1 star 2 stars 3 stars 4 stars 5 stars
comments

Let You In Tab

   
----------------------------------------------------------------------------
			     Let you in - Kutless 
----------------------------------------------------------------------------
Tabbed by:Max Andersen
Email: deckrider@hotmil.com

Tuning: Drop-Db

Riff 1
eb|---------------------------------------|
Bb|---------------------------------------|
Gb|---------------------------------------|
Db|-14-14--9-9--10-10--10-10--10-10-10-10-|
Ab|-12-12--7-7--8--8---8--8---8--8--8--8--|
Db|---------------------------------------|
    .  .   . .  .  .   .  .   .  .  .  .

Riff 2
eb|-----------------------------|
Bb|-----------------------------|
Gb|-----------------------------|
Db|-----------------------------|
Ab|-0-0--7-7--8-8--8-8--8-8-8-8-|
Db|-0-0--7-7--8-8--8-8--8-8-8-8-|
    . .  . .  . .  . .  . . . .
 
Riff 3
eb|-----------------------------|
Bb|-----------------------------|
Gb|-----------------------------|
Db|-----------------------------|
Ab|-0-0--7-7--3-3--3-3--3/5-5-5-|
Db|-0-0--7-7--3-3--3-3--3/5-5-5-|
    . .  . .  . .  . .  . . . .

Riff 4
eb|----------------|
Bb|----------------|
Gb|----------------|
Db|-------10-10-10-|
Ab|-0-7-8-8--8--8--|
Db|-0-7-8-8--8--8--|

Riff 5
eb|-----------------|
Bb|-----------------|
Gb|-----------------|
Db|-----------------|
Ab|-0-7-3-3-3/5-5-5-|
Db|-0-7-3-3-3/5-5-5-|
[ Tab from: http://www.guitartabs.cc/tabs/k/kutless/let_you_in_tab.html ]
Riff 6
eb|------------------------------------------------------------------|
Bb|------------------------------------------------------------------|
Gb|------------------------------------------------------------------|
Db|------------------------------------------------------------------|
Ab|-0-0-0-0-8-8-8-8-0-0-0-0-8-8-xxxx-0-0-0-0-8-8-8-8-5-5-5-5/3-3-3-3-|
Db|-0-0-0-0-8-8-8-8-0-0-0-0-8-8-xxxx-0-0-0-0-8-8-8-8-5-5-5-5/3-3-3-3-|
                                ....

Riff 7
eb|---------------------------|
Bb|---------------------------|
Gb|---------------------------|
Db|---------------------------|
Ab|-0-0--7-7--8-8--8-8--8-8/0-|
Db|-0-0--7-7--8-8--8-8--8-8/0-|
    . .  . .  . .  . .  . .  

Riff 8
eb|----------------------------|
Bb|----------------------------|
Gb|----------------------------|
Db|--------------------------5-|
Ab|-0-0--0-0--0-0-0-3--0-0-0-3-|
Db|-0-0--0-0--0-0-0-3--0-0-0---|
    . .  . .  . . .    . . .  

Riff 9
eb|----------------------|
Bb|----------------------|
Gb|----------------------|
Db|----------------------|
Ab|-0-0x-0-0x-3-2-0/3x-2-|
Db|-0-0x-0-0x-3-2-0/3x-2-|

eb|---------------|
Bb|---------------|
Gb|---------------|
Db|---------------|
Ab|-0-0--0-0--0-0-|
Db|-0-0--0-0--0-0-|

Intro:
riff 1 x2
riff 2 x3
riff 3
Verse 1:
riff 2 x3
riff 3
riff 4 x3
riff 5
Chorus:
riff 6 x2
Bridge:
riff 7 x3
riff 3
Interlude:
riff 8 x4
riff 9 x4
Chorus
Outro:
riff 9 x3
riff 10

| /  slide up
| \  slide down
| h  hammer-on
| p  pull-off
| ~  vibrato
| +  harmonic
| x  Mute note
| .  Palm mute
============================================================================
Comments