Kut U Up - Stupidly Clear Chords & Tabs

 

Stupidly Clear Chords & Tabs

Kut U Up Chords & Tabs

Version: 1 Type: Tab 0 ratings
1 star 2 stars 3 stars 4 stars 5 stars
comments

Stupidly Clear Tab

   
                             STUPIDLY CLEAR - KUT U UP

Email: XxStock7xX@aol.com
Tuning: Standard

This is a very sweet song
[ Tab from: http://www.guitartabs.cc/tabs/k/kut_u_up/stupidly_clear_tab.html ]
Part A
                                 Gm
e|---------------------|---------------------|---------------------|
B|---------------------|---------------------|---------------------|
G|-3p1p0-3p1p0-0-0---0-|-3p1p0-3p1p0-0-0---0-|-3p1p0-3p1p0-0-0---0-|
D|-----------------3---|-----------------3---|-----------------3---|
A|---------------------|---------------------|---------------------|
E|---------------------|---------------------|---------------------|
           Gm
e|-----------------------|
B|-----------------------|
G|-3p1p0-3p1p0-0-0---0--.|
D|-----------------3----.|
A|-----------------------|
E|-----------------------|
                Cm7                                   Gm
e|---------------|---------------|---------------------|---------------------|
B|---------------|---------------|---------------------|---------------------|
G|-3-1-0-1-3-1-0-|-3-1-0-1-3-1-0-|-3p1p0-3p1p0-0-0---0-|-3p1p0-3p1p0-0-0---0-|
D|---------------|---------------|-----------------3---|-----------------3---|
A|---------------|---------------|---------------------|---------------------|
E|---------------|---------------|---------------------|---------------------|
         D7              C7                            G
e|-----8---------|-----3---------|---------------------|---------------------|
B|-----6---------|-----4---------|---------------------|---------------------|
G|-----5---------|-----3---------|-3p1p0-3p1p0-0-0---0-|-3p1p0-3p1p0-0-0---0-|
D|---7-----------|---5-----------|-----------------3---|-----------------3---|
A|-5-------------|-3-------------|---------------------|---------------------|
E|---------------|---------------|---------------------|---------------------|
 (repeat as needed)

Part B
                                Gm
e|---------------|---------------|---------------|---------------|
B|---------------|---------------|---------------|---------------|
G|---------------|---------------|---------------|---------------|
D|---------------|---------------|---------------|---------------|
A|-------3-------|-------5-3-----|-------3-------|-------5-3-----|
E|-33333---6-3-1-|-33333-----6-3-|-33333---6-3-1-|-33333-----6-3-|
                Cm7                             Gm7
e|---------------|-----------------|-------------|---------------|
B|---------------|-----------------|-------------|---------------|
G|---------------|-----------------|-------------|---------------|
D|-------3-------|-------3/5-3-5\3-|-------------|---------------|
A|-33333---6-3-1-|-33333-----------|-------3-----|-------5-3-----|
E|---------------|-----------------|-33333---6-3-|-33333-----6-3-|
         D7              C7                G
e|-----5---------|-----3---------|-3-3-3-3-|-3--3---|
B|-----6---------|-----4---------|-3-3-3-3-|-3--3---|
G|-----5---------|-----3---------|-3-3-3-3-|-3--3---|
D|---7-----------|---5-----------|-3-3-3-3-|-3--3---|
A|-5-------------|-3-------------|-5-5-5-5-|-5--5---|
E|---------------|---------------|-3-3-3-3-|-3--3---|

thats everything but the 2nd solo during the last 50 seconds of the song

/ slide up
\ slide down
p pull-off

Buy "Pulled-Over" support Kut U Up
www.kutuup.com
Comments