Kut U Up - Sailed To Far Chords & Tabs

 

Sailed To Far Chords & Tabs

Kut U Up Chords & Tabs

Version: 1 Type: Tab 0 ratings
1 star 2 stars 3 stars 4 stars 5 stars
comments

Sailed To Far Tab

   
                          SAILED TO FAR - KUT U UP
 
Email: XxStock7xX@aol.com
Tuning: Standard
 
Intro
          E                E7                    C G/B
e|-0-0-0-0-0-0-0-0-|---------0-0-0-0-|-------0-----|-------0-----|
B|-0-0-0-1-1-1-1-0-|-3-3-3-3-0-3-0-3-|-3-3-----3---|-3-3-3---3---|
G|-1-1-1-2-2-2-2-1-|-1-1-1-1-1-1-1-1-|-0-0-------0-|-0-0-0-----0-|
D|-2-2-2-2-2-2-2-2-|-2-2-2-2-2-2-2-2-|-0-0---------|-0-0-0-------|
A|-----------------|-----------------|-3-3-2-------|-3-2-2-------|
E|-----------------|-----------------|-------------|-------------|
 
The rest
                       A5
e|-----------|----------|----------|----------|
B|-----------|----------|----------|----------|
G|-----------|----------|----------|----------|
D|-----------|----------|-77777777-|-77777777-|
A|-----------|----------|-77777777-|-77777777-|
E|-555555555-|-55555555-|-55555555-|-55555555-|
             A                       C/G
e|-----------|----------|-------------|-------------|
B|-----------|----------|-------------|-------------|
G|------b9---|------b9--|-------------|-------------|
D|-2222------|-2222-----|-5-5-5-5-5---|-5-5-5-5-5---|
A|-0000------|-0000-----|-3-3-3-3-3---|-3-3-3-3-3---|
E|-----------|----------|-3-3-3-3-3---|-3-3-3-3-3---|
 

thats the whole song, listen for the parts to know when to play what

b bend

Buy "Pulled-Over" support Kut U Up
www.kutuup.com
[ Tab from: http://www.guitartabs.cc/tabs/k/kut_u_up/sailed_to_far_tab.html ]
Comments