Kut U Up - Haves The Have Nots Chords & Tabs

 

Haves The Have Nots Chords & Tabs

Kut U Up Chords & Tabs

Version: 1 Type: Tab 0 ratings
1 star 2 stars 3 stars 4 stars 5 stars
comments

Haves The Have Nots Tab

Homepage: www.kutuup.com



Band:Kut U Up
Song:The Have's-The Have Nots
Album:Pulled Over...(Re-Release)
-Also On Riding In Vans With Boys


Intro

|----------------------------------------------------------|
|----------------------------------------------------------|
|----------------------------------------------------------|
|----------------------------------------------------------|
|----------------------------------------------------------|
|-0-0-12^-000012^-000012^-000012^-0000-10-12-(Repeat 6 Times)

Verse

|----------------------------------------------------------|
|----------------------------------------------------------|
|----------------------------------------------------7--6--|.
|-2----2----2--555-444--------2-------2-------2-----6--5---|.
|-2----2----2--555-444-------2-2-----2-2-----2-2---5--4----|
|-0----0----0-----------0-000---0-000---0-000--------------|
                       * ***   * ***   * ***
Verse (Alternate/ Guitar 2)
[ Tab from: http://www.guitartabs.cc/tabs/k/kut_u_up/haves_the_have_nots_tab.html ]
|------------------------------------------------------------|
|------------------------------------------------------------|
|------------------------------------------------------------|.
|-2----2----2--555-444--------2-------2-------2----555-444---|.
|-2----2----2--555-444-------2-2-----2-2-----2-2---555-444---|
|-0----0----0-----------0-000---0-000---0-000----------------|
                       * ***   * ***   * ***

Verse-Second Part
|------------------------------------------------------------|
|------------------------------------------------------------|
|--------------------------------------------------7--6------|.
|-2----2----2--555-444--------2-------2-------2-----6--5-----|.
|-2----2----2--555-444-------2-2-----2-2-----2-2-----5--4----|
|-0----0----0-----------0-000---0-000---0-000----------------|
                       * ***   * ***   * ***

Can Repeat 1st Verse

2.08

|----------------------|                            |----|
|----------------------|                            |----|
|----------------------|                            |----|
|--------2------555-444|   Repeat for .21 Seconds   |-2--|
|--------2------555-444|              2.30 Then...  |-2--|
|-0-000--0-0-0---------|                            |-0--|

Ending


Guitar 1 (Start @ 2.32)
|------------------------------------|
|------------------------------------|
|------------------------------------|
|------------------------------------|
|-777777777777-777777777777----------|
|-000000000000-888888888888----------|

Guitar 2 (Start @  2.44)               

|------------------------------------|
|------------------------------------|
|------------------------------------|
|------------------------------------|
|--7--7--7--7--7--7--7--7--7--7------|
|--0--0--0--0--0--8--8--8--8--8------|
Comments