Kut U Up - Destination Chords & Tabs

 

Destination Chords & Tabs

Kut U Up Chords & Tabs

Version: 1 Type: Tab 0 ratings
1 star 2 stars 3 stars 4 stars 5 stars
comments

Destination Tab

Intro:
e--------------------------------------|
B--------------------------------------|
G--------------------------------------|
D----------------------2--222-222-5/4--|
A--2-555-2222-555-222--2--555-222-2----|
E--3-333-3333-333-333------------------|

e--------------------------------------|
B--------------------------------------|
G--------------------------------------|
D----------------------2--222-222-5/4--|
A--2-555-2222-555-222--2--555-222-2----|
E--3-333-3333-333-333------------------|
[ Tab from: http://www.guitartabs.cc/tabs/k/kut_u_up/destination_tab.html ]
Comments