Kurban - Anne Chords & Tabs

 

Anne Chords & Tabs

Kurban Chords & Tabs

Version: 1 Type: Tab 0 ratings
1 star 2 stars 3 stars 4 stars 5 stars
comments

Anne Tab

   
Giriş
      C                         G
|----------------------------------------------|
|----------------------------------------------|
|----------------------0-----------------------|
|-2---2--2---2---2--2-----0---0-0---0---0-0----|
|-3---3--3---3---3--3-----5---5-5---5---5-5----|
|(0)--------(0)-----------3---3-3---3---3-3----|

    C          
|--0--0-0--------------------------------------|
|--1--1-1------0h1p0---------------------------|
|--0--0-0------2--------2----------------------|
|--2--2-2---------------2------5--5-5-5--5--3--|
|--3--3-3---------------0------5--5-5-5--5--3--|
|------------------------------3--3-3-3--3--1--|

Solo:
  C                  G             C
|----------------------------------------------|
|----------------------------------------------|
|-9-9-9-9h10p9-9-12--7-7-7-7h9p7-7---5-0-5-0---|
|----------------------------------------------|
|----------------------------------------------|
|----------------------------------------------|
 
 Am       G          -1-   -2-
|------------------|-----|-----|
|------------------|-----|-----|
|-4h5p4-2--0-0-0-0-|-4-7*|-0---|
|------------------|----*|---3-|
|------------------|-----|-----|
|------------------|-----|-----|
[ Tab from: http://www.guitartabs.cc/tabs/k/kurban/anne_tab.html ]
**************
|-------------------------------| Dikkat et oğlum 
|-------------------------------|aman ha yokluktan
|-5--5--5-5-5---5--5---5-5-5---*|uzak durasın
|-5--5--5-5-5---5--5---5-5-5---*|
|-3--3--3-3-3---3--3---3-3-3----|
|-------------------------------|

|-------------------------------|
|-------------------------------|
|-------------------------------|Parraaaaaa
|-5--5--5-5-5---5--5---5-5-5-3-3|
|-5--5--5-5-5---5--5---5-5-5-3-3|
|-3--3--3-3-3---3--3---3-3-3-1-1|


Nakarat:ritm 4x4  C-G-F
|--------------------------------| Korkma yavrum böyle
|--------------------------------|anneni hatırla aaaaa
|-5-5-5-------------------------*| Bakma yavrum öyle
|-5-5-5---5-5-5---3-3-3---5-5-5-*|anneni hatırla.
|-3-3-3---5-5-5---3-3-3---5-5-3--|
|---------3-3-3---1-1-1---3-3-3--|

nakarat söylenirken Özgür şu soloyu atıyor.
|---------------------------------------------|
|------------------------10-11-10----12-13-12-|
|----9-10-9-----------10----------12---------*|
|-10-----------9-10-9------------------------*|
|-----------10--------------------------------|
|---------------------------------------------|

solo.(solo atılırken Deniz C-G-C-A-G-F power 
akorlarını çalıyor)nakarattaki soloda değil.
Comments