Kult - Muj Wydafca Chords & Tabs

 

Muj Wydafca Chords & Tabs

Kult Chords & Tabs

Version: 1 Type: Bass Tab 0 ratings
1 star 2 stars 3 stars 4 stars 5 stars
comments

Muj Wydafca Bass Tab

4-string bass / standard tuning
Album: MUJ WYDAFCA (1994) by S.P. Records

=========================================
[ Tab from: http://www.guitartabs.cc/tabs/k/kult/muj_wydafca_btab.html ]
Intro / Main Riff
G|----------------------------------|
D|----------------------------------|
A|--0---0--2--3--3--2---------------|
E|---------------------3------------|

Chorus
G|----------------------------------|
D|----------------------------------|
A|--0---0--2--3--3--2--------2--3---|
E|----------------------3-----------|

-----------------------------------------
Very nice & easy song.
Comments