Kult - I Want You Back Chords & Tabs

 

I Want You Back Chords & Tabs

Kult Chords & Tabs

Version: 1 Type: Bass Tab 0 ratings
1 star 2 stars 3 stars 4 stars 5 stars
comments

I Want You Back Bass Tab

I want u back bass tab

Intro 
G|-------------------------------------------|
D|-------------------------------------------|
A|-----------------4-4-4-4-4-4-4-4-----------| all harmonics in verse
E|-4-4-4-4-4-4-4-4---------------------------|

chorus
G|-------------------------------------------|
D|-------------------------------------------|
A|-----------------0-3-4---------------------| drag out last note
E|-0-0-0-0-0-3-3-3---------------------------|

pre chorus
G|-------------------------------------------|
D|-------------------------------------------|
A|-------------------------------------------| only on second chorus
E|--0/15\0-----------------------------------|
[ Tab from: http://www.guitartabs.cc/tabs/k/kult/i_want_you_back_btab.html ]
solo after guitar
G|-------5-4---------------5-4---------------|
D|---5-4-----5-4h5-----5-4-----5-4h5---------|
A|-2---------------2-3---------------3-------| 
E|-------------------------------------------|


G|-------5-4---------------------------------|
D|---5-4-----5-4h5-----8-7-5---8-7-5---------|
A|-4---------------4-5-------5-------5-------| 
E|-------------------------------------------|


G|-------------------------------------------|
D|---8-7-5---8-7-5-----8-7-5---8-7-5---------|
A|-6-------6-------6-7-------7-------7-------| 
E|-------------------------------------------|


G|-------------------------------------------|
D|-------------------------------------------|
A|-5-6-7-6-5-5-6-7-6-5-----------------------|x2 
E|-------------------------------------------|


G|-------------------------------------------|
D|-------------------------------------------|
A|-----------------0-3-4---------------------|x4 
E|-0-0-0-0-0-3-3-3---------------------------|
Comments