Kult - Do Ani Chords & Tabs

 

Do Ani Chords & Tabs

Kult Chords & Tabs

Version: 2 Type: Bass Tab 0 ratings
1 star 2 stars 3 stars 4 stars 5 stars
comments

Do Ani Bass Tab

   
AUTHOR:        KULT
TITLE:         DO ANI
TRANSCRIPTION: PATRYK "PAZI" MAZUREK
E-MAIL:        pazee@poczta.fm
COMMENTS:      APPRECIATED  :)))
KIND OF TAB:   BASS TAB

G||-----------------------|-------------------------|--------------------------|
D||--7------7-------------|-------------------------|--------------------------|
A||------------6----------|---0----3---0-0----3---0-|---0----3---0-5---3-0-----|
E||-----------------3---4-|-------------------------|------------------------3-|

G|-----------------------|-------------------------|------------------------|
D|-----------------------|-------------------------|------------------------|
A|---0----3---0-0----3---|--0-0----3---0-5---3-0---|----0----3---0-0----3---|
E|-----------------------|-------------------------|--3---------------------|

G|--------------------------|------------------------|------------------------|
D|--------------------------|------------------------|------------------------|
A|---0-0----3---0-5---3-0---|------0----3---0-3----5-|---3-5----6---6-5---3-0-|
E|--------------------------|---3--------------------|------------------------|

G|-----------------------|-------------------------|------------------------|
D|-----------------------|-------------------------|------------------------|
A|-----0----3---0-0----3-|----0-0----3---0-5---3-0-|------0----3---0-0----3-|
E|---3-------------------|-------------------------|----3-------------------|
[ Tab from: http://www.guitartabs.cc/tabs/k/kult/do_ani_btab_ver_2.html ]
G|--------------------------|-----------------------|-------------------------|
D|--------------------------|-----------------------|-------------------------|
A|-----0-0----3---0-5---3-0-|-------0----3---0-0----|--3---0-0----3---0-5---3-|
E|--------------------------|-----3-----------------|-------------------------|

G|------------------------|--------------------------|--------------------|
D|------------------------|--------------------------|--------------------|
A|--0-----0----3---0-3----|---5---3-5----6---6-5---3-|---0----------------|
E|------3-----------------|--------------------------|-------3------------|

G|--------------------|-------------------||--------------------------|
D|--------------------|-------------------||*-------------------------|
A|--12/---------------|--0----------------||*---0----3---0-0----3---0-|
E|--------------------|-------------------||--------------------------|


                          11x
G|---------------------------||--------------------|-------------------|
D|--------------------------*||--------------------|-------------------|
A|---0----3---0-5---3-0-----*||--12/---------------|--0----------------|
E|------------------------3--||--------------------|-------------------|


                                                      13x
G|--------------------------|---------------------------||
D|*-------------------------|--------------------------*||
A|*---0----3---0-0----3---0-|---0----3---0-5---3-0-----*||
E|--------------------------|------------------------3--||
Comments