Kula Shaker - Great Hosannah Chords & Tabs

 

Great Hosannah Chords & Tabs

Kula Shaker Chords & Tabs

Version: 1 Type: Tab 1 rating
1 star 2 stars 3 stars 4 stars 5 stars
comments

Great Hosannah Tab

#----------------------------------PLEASE NOTE--------------------------------#
#This file is the author's own work and represents their interpretation of the#
#song. You may only use this file for private study, scholarship, or research.#
#-----------------------------------------------------------------------------#
#-- File created with Instab - http://www.pconline.com/~smcarey/instab.html --#
#-----------------------------------------------------------------------------#

Author/Artist: Kula Shaker
Title: Great Hosannah
Album: Peasants, Pigs, and Astronauts
Transcribed by: Trevor James Hawes
Email: trevorjames@cutey.com

    This is my first tab ever, so be gentle. I am almost positive that all the riffs in this
song are correct though it is obvious if you listen to the song that some riffs at points have 
some simple variations which are easy to interpret. There's always been debate over riff 3, but 
after hours of listening and playing to the riff, I'm almost positive it is correct. It's a bit 
tough to get used to, but if I can play it then certainly anyone can. I suggest listening to the 
song in order to get the timing and all that nice stuff correct. 

Enjoy the piece and email me if you have changes
or comments. Thanks!

[Basic riffs in the song]

-|-------0---------0--------0-------0---|-------0---------0--------0-------0--|
-|----10---10---10---10---8---8---5---5-|----10---10---10---10---8---8---5--5-|
-|-10---------9---------7-------6-------|-10---------9---------7-------6------|
-|--------------------------------------|-------------------------------------|
-|--------------------------------------|-------------------------------------|
-|--------------------------------------|-------------------------------------|
   riff 1                                                                           

-|-------0---------0--------0-------0---|-----0-------0-------0-------0-------|
-|----10---10---10---10---8---8---5---5-|---7---7---7---7---5---5---5---5-----|
-|-10---------9---------7-------6-------|-7-------7-------6-------6-----------|
-|--------------------------------------|-------------------------------------|
-|--------------------------------------|-------------------------------------|
-|--------------------------------------|-------------------------------------|
   riff 1.1
[ Tab from: http://www.guitartabs.cc/tabs/k/kula_shaker/great_hosannah_tab.html ]
-|-----0-------0-------0-------0---|-----0-------0-------0-------0------------|
-|---7---7---7---7---7---7---7---7-|---6---6---6---6---6---6---6---6----------|
-|-7-------7-------7-------7-------|-7-------7-------7-------7----------------|
-|---------------------------------|------------------------------------------|
-|---------------------------------|------------------------------------------|
-|---------------------------------|------------------------------------------|
								 end riff 1.1
  
-|------------|
-|------------|
-|------------|
-|------------|
-|-5-5--3/5-5-|
-|------------|
  riff 2                                                                      

-|----------------------------------|----------------------------------|
-|------------------6---------------|------------------6---------------|
-|---7p5-----5--------------5------7|----7p5----5-------------5------7-|
-|-0-----h5----h5p0---h5p0----h5p0--|--0-----h5---h5p0---h5p0---h5p0---|
-|----------------------------------|----------------------------------|
-|----------------------------------|----------------------------------|
   riff 3                                                                     

-|----------------------------------|-------------------------------5-5-5-|
-|-----------------6----------------|-----------------6-------------6-6-6-|
-|---7p5----5-------------5------7--|---7p5----5-------------5------------|
-|-0-----h5---h5p0---h5p0---h5p0----|-0-----h5---h5p0---h5p0---h5p0-------|
-|----------------------------------|-------------------------------------|
-|----------------------------------|-------------------------------------|
                                                                end riff 3 

-|-----------------------------------------------|
-|-6-5-6-5-6---8-6-8-6-8---6-5-6-5-6---8-6-8-6-8-|
-|-7-7-7-7-7---7-7-7-7-7---7-7-7-7-7---7-7-7-7-7-|
-|-----------------------------------------------|
-|-----------------------------------------------|
-|-----------------------------------------------|
  riff 4                                                                      

-|------------------------------------------|
-|-14-14--15-15-15-15---14-14--15-15-15-15--|
-|-14-14--15-15-15-15---14-14--15-15-15-15--|
-|-14-14--15-15-15-15---14-14--15-15-15-15--|
-|-0------0-------------0------0------------|
-|------------------------------------------|
  riff 5                                                                      

 
[Now it's time to put it all together]

 Part 1 - Riff 1 thru 1.1 (once)
               Part 2 - Riff 2 (repeat a lot)
               Part 3 - Riff 3 (twice)
	       Part 4 - Riff 4 (once)
               Part 5 - Riff 5 (once)
 

     
Comments