Kt Tunstall - Throw Me A Rope Chords & Tabs

 

Throw Me A Rope Chords & Tabs

Kt Tunstall Chords & Tabs

Version: 1 Type: Tab 0 ratings
1 star 2 stars 3 stars 4 stars 5 stars
comments

Throw Me A Rope Tab

Band Name: K.t Tunstall
Song Name: Throw me a rope
Tabbed By: Terry Sims (Masterofdarknes)
Email: Floyd_Fan89@teenspot.com

e| --3--------3-------3--------3-------|
B| ------3--------3----------------3---|
G| -----0-0------0-0--------------0-0--|
D| ------------------------------------|  INTRO
A| ------------------------0-2-3-------|
E| --3--------3-------3--3-------------|
[ Tab from: http://www.guitartabs.cc/tabs/k/kt_tunstall/throw_me_a_rope_tab.html ]
e| ------------------------------------------------0------2-------3-----|
B| --3---3---3----------3--3---3---3--------1---1-----1------1-------1--|
G| ----4---4-------------4--4----4-------------0-0---0-0----0-0-----0-0-|
D| --5-------5----------3------3------------2------2------2-------2-----|
A| ---------------------------------------------------------------------|
E| ---------------------------------------------------------------------|


e| -----------0---------2---------3--------------------------------|
B| --3----3-------3---------3---------3------3--------3-------3----|
G| -----0---0---0---0-----0---0-----0---0--------0--------0--------|
D| --2--------2---------2---------2------------2---2-----2---------|
A|-------------------------------------------3--------3------------|
E|------------------------------------------------------------3----|


That's all I have so far! Any comments feel free to email me at Floyd_Fan89@teenspot.com
Comments