Ks Choice - Everything For Free Chords & Tabs

 

Everything For Free Chords & Tabs

Ks Choice Chords & Tabs

Version: 1 Type: Tab 0 ratings
1 star 2 stars 3 stars 4 stars 5 stars
comments

Everything For Free Tab

   
#----------------------------------PLEASE NOTE--------------------------------#
#This file is the author's own work and represents their interpretation of the#
#song. You may only use this file for private study, scholarship, or research.#
#-----------------------------------------------------------------------------#
#-- File created with Instab - http://www.pconline.com/~smcarey/instab.html --#
#-----------------------------------------------------------------------------#

Author/Artist: K's Choice
Title: Everything For Free
Album: Cocoon Crash
Transcribed by: Caleb Campbell
two guitars, standard tuning

------------------------------------------------------------------------------
-----------2------------------------------------------------------------------
--------4---------------------------------------------------------------------
-----4------------------------------------------------------------------------
--2---------------------------------------------------------------------------
------------------------------------------------------------------------------
 G1 (Jan)                                                                     

------------------------0---2---3-------3---2---------------------------------
--------2--3----------3---3---3---3-------3---3-------------------------------
------4------4------2---------------0-----------0-----------------------------
----4----------4--0-------------------0---------------------------------------
--2---------------------------------------------------------------------------
------------------------------------------------------------------------------
 G1                                                                           

------------------------------------------------------------------------------
------3-------3-------3-------3-------3-------3-------3-------3-------3-------
----4---4---4---4---4---4---4---4---4---4---4---4---4---4---4---4---4---4-----
--4-------4-------4-------4-------5-------5-------4-------4-------4-------4---
------------------------------------------------------------------------------
------------------------------------------------------------------------------
 G2 (Gert)                                                                    

------------------------0---2---3-------3---2--------------2-------------3----
--------2--3----------3---3---3---3-------3---3--------------2-------------3--
------4------4------2---------------0-----------0--------------3--------------
----4----------4--0-------------------0------------------4-------4-----5------
--2----------------------------------------------------4-------------5--------
-----------------------------------------------------2-------------3----------
  G1                                                                          

------------------------------------------------------------------------------
---3-------3-------3-------2-------2-------3-------3-------5-------5------0---
-----4---4---4---4---4---3---3---3---3---4---4---4---4---6---6---6---6--2-----
-------5-------5-------4-------4-------5-------5-------7-------7--------------
------------------------------------------------------------------------------
------------------------------------------------------------------------------
   G2                                                                         

------------5-----------------------------------------------------------------
--------------5--------------3------------------------------------------------
--4-------------6----2---1---4------------------------------------------------
----5-----7-------7--2---2---4------------------------------------------------
--------7------------2---2---2------------------------------------------------
------5--------------0---0----------------------------------------------------
 G1                                                                           
[ Tab from: http://www.guitartabs.cc/tabs/k/ks_choice/everything_for_free_tab.html ]
-0----------------------------------------------------------------------------
---0--------------------------------------------------------------------------
-----1------------------------------------------------------------------------
------------------------------------------------------------------------------
---------2--------------------------------------------------------------------
------------------------------------------------------------------------------
 G2                                                                           

------------------------------------------------------------------------------
--------------------------------------7-8-8h10-8vv-7--5h7---------------------
-7-9-9h11-9-7vvv---7-9-9h11-9-7vvv-7------------------------------------------
-----------------------------------------------------------7/11---------------
------------------------------------------------------------------------------
------------------------------------------------------------------------------
 G1(solo)                                                                     

-2-2-2-2-2-2-2-2-2-2-2-0-0-2-2-3-3-3-3-3-3-2-2-2------------------------------
-3-3-3-3-3-3-3-3-3-3-3-3-3-3-3-3-3-3-3-3-3-3-3-3------------------------------
-4-4-4-4-4-4-4-4-2-2-2-2-2-2-2-2-0-0-0-0-0-0-0-0------------------------------
-4-4-4-4-4-4-4-4-0-0-0-0-0-0-0-0-0-0-0-0-0-0-0-0------------------------------
-2-2-2-2-2-2-2-2-----------------2-2-2-2-2------------------------------------
---------------------------------3-3-3-3-3------------------------------------
 G2 (chords...also verse chords [verses doubled by G1])                       

------------------------------------------------------------------------------
------------------------------------------------------------------------------
------------------------------------------------------------------------------
------------------------------------------------------------------------------
------------------------------------------------------------------------------
------------------------------------------------------------------------------
       Verse, 2 x through with both guitars then                              

--2-2-2-2-2-2-2-2-3-3-3-3-3-3-3-3-5-5-5-5-5-5-5-5-0-0-0-0---------------------
--2-2-2-2-2-2-2-2-3-3-3-3-3-3-3-3-5-5-5-5-5-5-5-5-0-0-0-0---------------------
--3-3-3-3-3-3-3-3-4-4-4-4-4-4-4-4-6-6-6-6-6-6-6-6-2-2-2-1---------------------
--4-4-4-4-4-4-4-4-5-5-5-5-5-5-5-5-7-7-7-7-7-7-7-7-2-2-2-2---------------------
--4-4-4-4-4-4-4-4-5-5-5-5-5-5-5-5-7-7-7-7-7-7-7-7-2-2-2-2---------------------
--2-2-2-2-2-2-2-2-3-3-3-3-3-3-3-3-5-5-5-5-5-5-5-5-0-0-0-0---------------------
                                                                              

-----------------2-2-2-2-0-0-0-0-2-2-2-2--------------------------------------
-3-3-3-3---------3-3-3-3-2-2-2-2-3-3-3-3-3-3-3-3-3-3-3-3----------------------
-2-2-2-2-3-3-3-3-4-4-4-4-2-2-2-2-2-2-2-2-2-2-2-2-2-2-2-2-3-3-3-3--------------
-0-0-0-0-4-4-4-4-4-4-4-4-2-2-2-2-0-0-0-0-0-0-0-0-0-0-0-0-3-3-3-3--------------
-0-0-0-0-4-4-4-4-2-2-2-2-0-0-0-0---------3-3-3-3-2-2-2-2-1-1-1-1--------------
-2-2-2-2-2-2-2-2--------------------------------------------------------------
 Chorus, both guitars                                                         

-----------------2-2-2-2-0-0-0-0-2-2-2-2--------------------------------------
-3-3-3-3---------3-3-3-3-2-2-2-2-3-3-3-3-3-3-3-3-3-3-3-3----------------------
-2-2-2-2-3-3-3-3-4-4-4-4-2-2-2-2-2-2-2-2-2-2-2-2-2-2-2-2-3--5-----------------
-0-0-0-0-4-4-4-4-4-4-4-4-2-2-2-2-0-0-0-0-0-0-0-0-0-0-0-0-3--5-----------------
-0-0-0-0-4-4-4-4-2-2-2-2-0-0-0-0---------3-3-3-3-2-2-2-2-1--3-----------------
-2-2-2-2-2-2-2-2--------------------------------------------------------------
                                                                              

------------------------------------------------------------------------------
------------------------------------------------------------------------------
------------------------------------------------------------------------------
------------------------------------------------------------------------------
------------------------------------------------------------------------------
------------------------------------------------------------------------------
 Verse again, then chorus then                                                

------------------------------------------------------------------------------
------------------------------------------------------------------------------
------------------------------------------------------------------------------
------------------------------------------------------------------------------
------------------------------------------------------------------------------
------------------------------------------------------------------------------
 G1 solo (verse chords G2)                                                    

Comments