Kroger Chad - Hero Chords & Tabs

 

Hero Chords & Tabs

Kroger Chad Chords & Tabs

Version: 1 Type: Tab 0 ratings
1 star 2 stars 3 stars 4 stars 5 stars
comments

Hero Tab

   
Band-Chad Kroeger f/ Josey Scott
Song-hero
By-Cactusjohn89


VERSE
--------------------------------------------------------     
--------------------------------------------------------
---------------------------1--1--2--1--1--2--1--1--2
----6--6--6--6-----------2--2--2--2--2--2--2--2--2
----6--6--6--6-----------2--2--2--2--2--2--2--2--2
----4--4--4--4----------------------------------------

--------------------------------------------------------
--------------------------------------------------------
---------------------------1--1--2--1--1--2--1--1--2
----6--6--6--6-----------2--2--2--2--2--2--2--2--2
----6--6--6--6-----------2--2--2--2--2--2--2--2--2
----4--4--4--4----------------------------------------

     G              A              E
----3---------------------------------------------------
----3-----------2----------------------------------------
----0-----------2------------1---------------------------
----0-----------2------------2---------------------------
----2------------------------2----------------------------
----3----------------------------------------------------

Chorus- G A B G A E
[ Tab from: http://www.guitartabs.cc/tabs/k/kroger_chad/hero_tab.html ]
SOLO
--------------------------------------------------------------------
--------------------------------------------------------------------
--------------------------------------------------------------------
--------------------------------------------------------------------
-8-7-8-7-8-7-5-8-7-8-7-8-7-3-5-7--12-10-12-10-12-10-7
--------------------------------------------------------------------

--------------------------------------------------------------------
--------------------------------------------------------------------
-----------------------------------------------1--1--1--1---------
-----------------------------------------------2--2--2--2---------
--12-10-12-10-12-10-5--------------------2--2--2--2--------
--------------------------------------------------------------------




BRIDGE

-----3----5-----7----9-----3----5-----7-------------------        
-----3----5-----7----7-----3----5-----7-------------------
-----4----6-----8----8-----4----6-----8-------1----------
-----5----7-----9----9-----5----7-----9-------2----------
-------------------------------------------------2---------
------------------------------------------------------------

ENDING – G A B G A B G A E A B

ORDER
VERSE
CHORUS
VERSE
CHORUS
SOLO
BRIDGE
CHORUS 
ENDING
Comments