Kroeger Chad - Hero Chords & Tabs

 

Hero Chords & Tabs

Kroeger Chad Chords & Tabs

Version: 6 Type: Tab 1 rating
1 star 2 stars 3 stars 4 stars 5 stars
comments

Hero Tab


tune down half step to play with cd.
listen to cd for strumming pattern

I saw the other tabs so far, and they don't seem quite right.
I think this might sound closer, but that's just my opinion.
I'm tabbing this from memory right now,
because I don't have the cd.
email me if you have questions at sonofnam@hotmail.com
[ Tab from: http://www.guitartabs.cc/tabs/k/kroeger_chad/hero_tab_ver_6.html ]
intro
-0----0----0----0--|-----------------|
-1----0----3----1--|-----------------|
-2----2----2----2--|-----------------|
-2----2----2----2--|--3--------------|
-0----0----0----0--|--3--------------|
-------------------|--1--------------|
repeat that a couple times 



          p.m.
-------------------|----------------|
-------------------|----------------|
-------------------|----------------|
-6----8----3-------|-6---8---10-----|
-6----8----3-------|-6---8---10-----|
-4----6----1-------|-4---6---8------|
          p.m.   
-------------------|
-------------------|
-------------------|
-6----8----3-------|
-6----8----3-------|
-4----6----1-------|

then repeat from the intro part.
with this you should be able to figure out the rest,
if not, email me.
Comments