Kroeger Chad - Hero Chords & Tabs

 

Hero Chords & Tabs

Kroeger Chad Chords & Tabs

Version: 3 Type: Tab 1 rating
1 star 2 stars 3 stars 4 stars 5 stars
comments

Hero Tab

   
Song: Hero
Album: Spiderman (Soundtrack)
Artist: Chad Kroeger
Tabbed by: Ben Lewis benlew@dejazzd.com

This is a great song off of the new Spiderman soundtrack.  The guitar in the song is
tuned down a half step(Eb Ab Db Gb Bb Eb).  All of the chords are based on the 
lower tuning, so Am is really Abm.  (F=E, Bb=A, you get the picture.)  Comments and
Suggestions are welcome (benlew@dejazzd.com)


VERSE 1:
Am                       F
I am so High, I can hear heaven
I am so High, I can hear heaven
       Ab          Bb                 F
Oh but heaven, no heaven don't hear me

CHORUS:
                    Ab       
and they say that a hero can save us,
    Bb                       C
i'm not gonna stand here and wait
                    Ab
I'll hold on to the wings of the eagles,
    Bb                   F
and watch as we all fly away

VERSE 2:
Someone told me, love would not save us.
But how can that be, when look waht love gave us:
a world full of killing, and blood-spilling
that world never came

CHORUS

SOLO
[ Tab from: http://www.guitartabs.cc/tabs/k/kroeger_chad/hero_tab_ver_3.html ]
BRIDGE:
Ab
Now that the world isn't ending,
     Bb                       C
it's love that i'm sending to you
Ab
It isn't the love of a hero,
    Bb                         C
and that's why i fear it won't do

CHORUS

(Same chords as the chorus)
and they're watching us, (watching us)    |
they're watching us (watching us)         |----Play 3x
as we all fly away                        |

Woaahooa-woah  (End on a C)



Verse Riff
-0-0-0-0-|-1-|
-1-0-3-1-|-1-|
-2-2-2-2-|-2-|
-2-2-2-2-|-3-|
-0-0-0-0-|-3-|
---------|-1-|

Bridge
-4-6-----6-8------8-10------8-10------
-4---4---6---6----8----8----8----8----
-5-----5-7-----7--9------9--9------9--
-6-------8--------10--------10--------
-6-------8--------10--------10--------
-4-------6--------8---------8---------
(after second time play F)


Solo
eb|----------------|----------------|-------
Bb|----------------|----------------|-------
Gb|-8p7-8p7-8p7-5~-|-8p7-8p7-8p7-3~-|-5-/7--

eb|----------------------|----------------------|---------------
Bb|----------------------|----------------------|---------------
Gb|-12p10-12p10-12p10-8~-|-12p10-12p10-12p10-7~-|-5~-8~-10~-12~-
Comments