Kroeger Chad - Hero Chords & Tabs

 

Hero Chords & Tabs

Kroeger Chad Chords & Tabs

Version: 1 Type: Tab 1 rating
1 star 2 stars 3 stars 4 stars 5 stars
comments

Hero Tab

   
Song: Hero

Artist: Chad Kroeger featuring Josey Scott

Album: Spider-Man Soundtrack

Tabbed by: Brandon Holmes



Chords used:

-0-----1-----4-----6----------------------------
-1-----1-----4-----6----------------------------
-2-----2-----5-----7-----------------------5----
-2-----3-----6-----8-----3-----6-----8-----5----
-0-----3-----6-----8-----3-----6-----8-----3----
-------1-----4-----6-----1-----4-----6----------
 Am    F     G#    Bb    F5    G#5   Bb5   C5                                 


Verse:

Am                             F

    I am so high I can hear heaven

Am                             F

    I am so high I can hear heaven

        G#           Bb              F5

Oh but heaven, no, heaven don't hear me



Chorus:

                     G#5

And they say that a hero could save us

     Bb5                      C5

I'm not gonna stand here and wait

                     G#5

I'll hold onto the wings of the eagles

Bb5                     F5

Watch as they all fly away



Verse 2:

Am                                 F

    Someone told me love will all save us

Am                                       F

    But how can that be? Look what love gave us:

                  G#                Bb

A world full of killing and blood-spilling

                      F5

And that world never came


Chorus x 1


Ahhhh...


Solo (not sure about this):
[ Tab from: http://www.guitartabs.cc/tabs/k/kroeger_chad/hero_tab.html ]
---------------------------------------------------------------------------
------------------------------------8p6-8p6-8p6---8p6-8p6-8p6--------------
--7p6-7p6-7p6---7p6-7p6-7p6-------6-------------8-------------7-----7---9--
--------------9-------------7-7/9-------------------------------9----------
---------------------------------------------------------------------------
---------------------------------------------------------------------------
 G#5            Bb5           C5    G#5           Bb5           F5            


(This next part probably isn't too accurate. Just finger pick the chorus
chords and it'll sound fine.)

----------------------6----------
---------------------------------
------------------5--------------
--------------6------------------
----------------6---6------------
--------------4-----4------------
             (G#)
                                                                
Now that the world isn't ending


--------8p6-----------------------10-8---10p8----------
------------6--------------------------8------8--------
--------------7---------------------------------9------
------8------------------------10----------------------
--------------------------------------------------10---
------6------------------------8---------------------8-
     (Bb)                     (C)

It's love that I'm sending to you


------------------6-4----------
----------------------4--------
-------------------------------
--------------6----------------
----------------6--------------
--------------4----------------
             (G#)

It isn't the love of the hero

---------8p6-------
-------------6-----
---------------7---
-----8-------------
-------8-----------
-----6-------------
    (Bb)                       F5

And that's why I fear it won't do


Chorus x 1

                        G#5

And they're watching us (watching us)

                    Bb5

They're watching us (watching us)

                   C5

As we all fly away (yeaaaaaaaah)

x 3

F5    C5    F5      C5

Yeah, yeah, yeah, whoa...
Comments