Kristin Hersh - Beestung Chords & Tabs

 

Beestung Chords & Tabs

Kristin Hersh Chords & Tabs

Version: 1 Type: Tab 0 ratings
1 star 2 stars 3 stars 4 stars 5 stars
comments

Beestung Tab

   
#----------------------------------PLEASE NOTE---------------------------------#
#This file is the author's own work and represents their interpretation of the #
#song. You may only use this file for private study, scholarship, or research. #
#------------------------------------------------------------------------------##
From: magnus.ring@udac.se (Magnus Ring)

Beestung (K. Hersh)
--------

Pick this pattern :

e------------------------------------------------------------------|
b-------3---------------------3-----------------3----------3-------|
g-------------0----------2----------------0----------------------0-|
d------------------0---------------------------------2-------------|
a-----------------------------------3------------------------------|
E-3----------------------------------------------------------------|

  Start with your fingers, they     finger     the   change ...

or strum these chords :

e-3----------------2----------------3----------------3------------|
b-3----------------3----------------3----------------3------------|
g-0----------------2----------------0----------------0------------|
d-0----------------0----------------2----------------2------------|
a-2---------------------------------3----------------0------------|
E-3---------------------------------------------------------------|

  Start with your fingers, they     finger  the      change ....


Start with your fingers, they finger the change
that carries you home in the evening
You're beestung there

Press your palm to your snowcoated thought cage
Carries me over your thinking
You're beestung there

Between the tall buildings are snowcoated alleys
Between us is nothing but grace
Snow rides the wind down and drives past the window
Falling all over your face
I fly out the window and then ride the wind down
You fit me into my place
You're beestung here

Start with your eyes when they eye me in twilight
Picking up pieces of mine
Tie me up with the twine in your eyelight
String me from heaven to time
You beestung me

Between the tall buildings are snowcoated alleys
Between us is nothing but grace
Help me up when you hear me behind you
Falling all over the place
It's not too late
It's not too late
It's not too late


Date: Fri, 14 Nov 1997 16:32:37 -0500
From: Helms 
Subject: TAB: "Beestung" by Kristin Hersh


"Beestung"
by Kristin Hersh
from "Hips and Makers"
Guitar arrangement for Piano
transcribed by Bjart Helms, bjart@mindless.com

This is hard, but fun to play. My transcriptian is an octave
below the piano on the recording. I couldn't find any way to
play it comforatbly up an octave.

[ Tab from: http://www.guitartabs.cc/tabs/k/kristin_hersh/beestung_tab.html ]
dropped D (low to high): D, A, D, G, B, E
slow 6/8

Intro Riff:
 -1-&-&-2-&-&- -1-&-&-2-&-&- -1-&-&-2-&-&- -1-&-&-2-&-&---|
e-------------|-------------|-------------|---------------|
B-------------|-------------|---0---0-----|-0-----0-------|
G-0---2-0---2-|-0---2-0-----|---0---0---2-|-0---2-0-------|
D---0-----0---|---0-----0---|-----0---0---|---0-----0-----|
A-------------|-------------|-------------|---------------|
D-5-----4-----|-3-----2---0-|-5-----4-----|-3-----2---0---|

 -1-&-&-2-&-&- -1-&-&-2-&-&- -1-&-&-2-&-&- -1-&-&-2-&-&---|
e-----------0-|-----0-------|-------------|---------------|
B---3---3-----|-3-----3-----|---0-------0-|-----0---------|
G-----0---0---|---0-----0---|---0-----0---|---0-----0-----|
D-------------|-------------|-----0-4---0-|-3---0-2---0---|
A-------------|-------------|-------------|---------------|
D-5-----4-----|-3-----2---0-|-5-----4-----|-3-----2---0---|


The rest of the song fits into one of two riffs:

Riff 1:
 -1-&-&-2-&-&- -1-&-&-2-&-&---|
e-------------|---------------|
B-------0-----|-0-----0-------|
G---0---0---2-|-0---2-0-------|
D-----0---0---|---0-----0-----|
A-------------|---------------|
D-5-----4-----|-3-----2---0---|
Riff 2:
-1-&-&-2-&-&- -1-&-&-2-&-&- -1-&-&-2-&-&- -1-&-&-2-&-&----|
e-----------0-|-----0-------|-------------|---------------|
B---3---3-----|-3-----3-----|---0-------0-|-----0---------|
G-----0---0---|---0-----0---|---0-----0---|---0-----0-----|
D-------------|-------------|-----0-4---0-|-3---0-2---0---|
A-------------|-------------|-------------|---------------|
D-5-----4-----|-3-----2---0-|-5-----4-----|-3-----2---0---|

Song:

Intro

{riff1 x 3}
Start with your fingers, they finger the change
That carries you home in our evenings
You're based on there

{riff2}
Press your palm to your snow coated thought cage
That carries me over your thinking

{riff1 x 5}
You're based on there
Between the tall buildings are snow coated alleys
Between us is nothing but grace
Snow rides the wind down and drives past the window
Falling all over your face

{riff2}
I fly out the window and then ride the wind down
You'll fit me into my place

{riff1}
You're based on here

{riff 2} {riff 1}

{riff 1 x 2}
Start with your eyes when they eye me in twilight
Picking up pieces of mine

{riff2}
Tie me up with the twine in your eye light
String me from heaven to time

{riff1 x 8}
You based on me
Between the tall buildings are snow coated alleys
Between us is nothing but grace
Help me up when you hear me behind you
Falling all over the place
It's not too late
It's not too late
It's not too late

{riff1 x 3}
End on fith fret low D
Comments