Krisiun - Endless Madness Descends Chords & Tabs

 

Endless Madness Descends Chords & Tabs

Krisiun Chords & Tabs

Version: 1 Type: Tab 0 ratings
1 star 2 stars 3 stars 4 stars 5 stars
comments

Endless Madness Descends Tab

   
/--------------------------------------------------------------------------\
/    The following is the author's own interpretation of the song, to be   \
/                     used for private use and studying                    \
/--------------------------------------------------------------------------\

                     KRISIUN - ENDLESS MADNESS DESCENDS
                     From the Album CONQUERORS OF ARMAGEDDON
                     Copyright 2000 (Century Media Records)
                     Version 1.0 - June 2001

Transcribed by: Chris Ninman

For Questions, Comments, Newest Version, or Corrections contact
 Chris Ninman at: snowballingblood@hotmail.com

Check Out DEATH WARP, With More Transcriptions On It:
 http://www.wam.umd.edu/~ekubica

Tablature Notation
-----------------
.  - palm mute                    /  - slide up to
\  - slide down to                ~  - vibrato
h  - hammer on                    b  - bend
p  - pull off                          Suffixes for bend
ph - pinch harmonic                     f - full bend    h - half bend
*  - see comment                        r - release      t - tap bend
X  - percussion mute                    ~ - vibrato bend
@  - slight palm mute             () - ghost note, sustained note
"  - tremolo pick until next note

Like all songs from Apocalyptic Revelations or Conquerors of Armageddon,
this song is divided into the right and left channel. When there is more
than one guitar in a riff, the top is the left channel and the bottom is
the right channel. If only one guitar part is shown, both channels are
playing the same thing.

Tuning C# (C#,F#,B,E,G#,C#)

ENDLESS MADNESS DESCENDS

Riff 1 (8 times)
|-------------------------|
|-------------------------|
|-------------------------|
|-------------------------|
|-------------------------|
|-1-0-1-4-3-0-2-1-2-5-4-0-|
  . . . . . . . . . . . .

Riff 2 (4 times)
|---------------------------------|
|---------------------------------|
|---------------------------------|
|---------------------------------|
|---------------------------------|
|-1"0"1"0"4"3"0"--2"1"2"1"5"4"0"--|

Riff 3 (2 times)
|-------------------------------------|
|-------------------------------------|
|-------------------------------------|
|-------------------------------------|
|-------------------------------------|
|-9"8"9"8"12"11"0"--8"7"8"7"11"10"0"--|

Riff 4 (6 times)
|---------------------------------------------|
|---------------------------------------------|
|---------------------------------------------|
|---------------------------------------------|
|---------------------------------------------|
|-9"-8"-9"-8"-12"11"0"--8"-7"-8"-7"-11"10"0"--|
|
|---------------------------------------------|
|---------------------------------------------|
|---------------------------------------------|
|---------------------------------------------|
|---------------------------------------------|
|-14"13"14"13"17"16"0"--13"12"13"12"16"15"0"--|

Riff 5 (1 time)
|-------------------------------------------------------------|
|-------------------------------------------------------------|
|-------------------------------------------------------------|
|-------------------------------------------------------------|
|-------------------------------------------------------------|
|-1"0"1"0"3"-----2"1"2"1"4"-----1"0"1"0"3"-----2"1"2"1"7"-----|

Riff 6 (1 time)
|-------------------------------------------------------------|
|-------------------------------------------------------------|
|------------------------------------------------------p.h.---|
|------------------------------------------------------7~-----|
|-------------------------------------------------------------|
|-1"0"1"0"3"-----2"1"2"1"4"-----1"0"1"0"3"-----2"1"2"1"-------|

Repeat Riff 5 (6 times)
Repeat Riff 1 (2 times)

Riff 7 (2 times)
|-------------------------|
|-------------------------|
|-------------------------|
|-------------------------|
|-------------------------|
|-1-0-1-4-3-0-2-1-2-5-4-0-|
| . . . . . . . . . . . .
|-------------------------|
|-------------------------|
|-------------------------|
|-------------------------|
|-8-7-81110-7-9-8-91211-7-|
|-------------------------|
  . . . . . . . . . . . .

Riff 8 (4 times)
|-------------------------------------|
|-------------------------------------|
|-------------------------------------|
|-------------------------------------|
|-------------------------------------|
|-1"0"1"0"4"-3"-0"--2"1"2"1"5"-4"-0"--|
|
|-------------------------------------|
|-------------------------------------|
|-------------------------------------|
|-------------------------------------|
|-8"7"8"7"11"10"0"--9"8"9"8"12"11"0"--|
|-------------------------------------|

Repeat Riff 5 (7 times)

Riff 9 (1 time)
|-----------------------------------------------------------|
|-----------------------------------------------------------|
|-----------------------------------------------------------|
|-----------------------------------------------------------|
|------------------------------------------------------2----|
|-1"0"1"0"3"-----2"1"2"1"4"-----1"0"1"0"3"-----2"1"2"1"0----|

Riff 10 (4 times)
|---------------------------------|
|---------------------------------|
|---------------------------------|
|---------------------------------|
|-------------5-4---------5-4-8-7-|
|-1-0-4-3-7-6-----4-3-7-6---------|

Riff 11 (4 times)
|-------------------------|
|-------------------------|
|-------------------------|
|-------------------------|
|-7-6-----6-5-----5-4-----|
|-----8-7-----7-6-----6-5-|

Repeat Riff 10 (4 times)
Repeat Riff 11 (4 times)

Riff 12 (4 times)
|-------------------------|
|-------------------------|
|-------------------------|
|-------------------------|
|-7-6-----6-5-----5-4-----|
|-----8-7-----7-6-----6-5-|
|
|-------------------------|
|-------------------------|
|-------------------------|
|-9-8-----8-7-----7-6-----|
|----10-9-----9-8-----8-7-|
|-------------------------|
[ Tab from: http://www.guitartabs.cc/tabs/k/krisiun/endless_madness_descends_tab.html ]
Riff 13 (1 time)
|----------------------------|
|----------------------------|
|----------------------------|
|----------------------------|
|----------9-8-3--22-5-4-----|
|-0"-------7-6-1--00-3-2-0"--|

Riff 14 (1 time)
|----------------------------------------------------------|
|----------------------------------------------------------|
|----------------------------------------------------------|
|----------------------------------------------------------|
|-9"-------10"--------9"-------10"----9"-10"-13"-10"-9"-7"-|
|-7"---0"---8"---0"---7"---0"---8"----7"--8"-11"--8"-7"-5"-|
|
|----------------------------------------------------------|
|----------------------------------------------------------|
|----------------------------------------------------------|
|-9"-------10"--------9"-------10"----9"-10"-13"-10"-9"-7"-|
|----------------------------------------------------------|
|-7"---0"---8"---0"---7"---0"---8"----7"--8"-11"--8"-7"-5"-|

Riff 15 (1 time)
|-------------------------------------------------------------------|
|-------------------------------------------------------------------|
|-------------------------------------------------------------------|
|-------------------------------------------------------------------|
|-9"-------10"--------9"-------10"----9"-10"-13"-10"-9"-7"-9"-------|
|-7"---0"---8"---0"---7"---0"---8"----7"--8"-11"--8"-7"-5"-7"---0"--|
|
|-------------------------------------------------------------------|
|-------------------------------------------------------------------|
|-------------------------------------------------------------------|
|-9"-------10"--------9"-------10"----9"-10"-13"-10"-9"-7"-9"-------|
|-------------------------------------------------------------------|
|-7"---0"---8"---0"---7"---0"---8"----7"--8"-11"--8"-7"-5"-7"---0"--|

Riff 16 (3 times)
|----------------------------------------------------------|
|----------------------------------------------------------|
|----------------------------------------------------------|
|-9"-------10"--------9"-------10"----9"-10"-13"-10"-9"-7"-|
|-7"--------8"--------7"--------8"----7"--8"-11"--8"-7"-5"-|
|------0"--------0"--------0"------------------------------|
|
|----------------------------------------------------------|
|----------------------------------------------------------|
|-9"-------10"--------9"-------10"----9"-10"-13"-10"-9"-7"-|
|----------------------------------------------------------|
|-7"--------8"--------7"--------8"----7"--8"-11"--8"-7"-5"-|
|------0"--------0"--------0"------------------------------|

Riff 17 (1 time)
|-------------------------------------------------------------------|
|-------------------------------------------------------------------|
|-------------------------------------------------------------------|
|-9"-------10"--------9"-------10"----9"-10"-13"-10"-9"-7"-9"-------|
|-7"--------8"--------7"--------8"----7"--8"-11"--8"-7"-5"-7"-------|
|------0"--------0"--------0"-----------------------------------0"--|
|
|-------------------------------------------------------------------|
|-------------------------------------------------------------------|
|-9"-------10"--------9"-------10"----9"-10"-13"-10"-9"-7"-9"-------|
|-------------------------------------------------------------------|
|-7"--------8"--------7"--------8"----7"--8"-11"--8"-7"-5"-7"-------|
|------0"--------0"--------0"-----------------------------------0"--|

Repeat Riff 14 (1 time)
Repeat Riff 15 (1 time)

Riff 18 (2 times)
|----------------------------------------------------------|
|----------------------------------------------------------|
|----------------------------------------------------------|
|-9"-------10"--------9"-------10"----9"-10"-13"-10"-9"-7"-|
|-7"--------8"--------7"--------8"----7"--8"-11"--8"-7"-5"-|
|------0"--------0"--------0"------------------------------|
|
|----------------------------------------------------------|
|----------------------------------------------------------|
|-9"-------10"--------9"-------10"----9"-10"-13"-10"-9"-7"-|
|-------------------------------8"----7"--8"-11"--8"-7"-5"-|
|-7"--------8"--------7"--------8"----7"--8"-11"--8"-7"-5"-|
|------0"--------0"--------0"------------------------------|

Repeat Riff 16 (6 times)

Riff 19 (4 times)
|--------------------|
|--------------------|
|--------------------|
|--------------------|
|-12"------14"-------|
|-10"------12"-------|

Fill 1
|-----|
|-----|
|-----|
|-----|
|-----|
|-0"--|

Repeat Riff 16 (2 times)

Riff 20 (1 time)
|----------------------------------------------------------|
|----------------------------------------------------------|
|----------------------------------------------------------|
|-9"-------10"--------9"-------10"----9"-10"-13"-10"-9"-7"-|
|-7"--------8"--------7"--------8"----7"--8"-11"--8"-7"-5"-|
|------0"--------0"--------0"------------------------------|
|
|----------------------------------------------------------|
|----------------------------------------------------------|
|----------------------------------------------------------|
|-9"-------10"--------9"-------10"----9"-10"-13"-10"-9"-7"-|
|----------------------------------------------------------|
|-7"---0"---8"---0"---7"---0"---8"----7"--8"-11"--8"-7"-5"-|

Fill 2
|----|
|----|
|----|
|-9--|
|-7--|
|-0--|
|
|----|
|----|
|----|
|----|
|-2--|
|-0--|

Repeat Riff 10 (4 times)
Repeat Riff 11 (2 times)
Repeat Riff 12 (3 times) with Riff 21 (3 times) on top of it

Riff 21
|-------------------------|
|-------------------------|
|-9-8-----8-7-----7-6-----|
|----10-9-----9-8-----8-6-|
|-------------------------|
|-------------------------|
|
|-------------------------|
|-1211----1110----109-----|
|-----1211----1110---10-9-|
|-------------------------|
|-------------------------|
|-------------------------|

Ending
|----------------------|
|----------------------|
|----------------------|
|----------------------|
|-7-6-----6-5----------|
|-----8-7-----7-6-5\---|
|
|----------------------|
|----------------------|
|----------------------|
|-9-8-----8-7----------|
|----10-9-----9-8-7\---|
|----------------------|
|
|----------------------|
|----------------------|
|-9-8-----8-7----------|
|----10-9-----9-8-7\---|
|----------------------|
|----------------------|
|
|----------------------|
|-1211----1110---------|
|-----1211----11109\---|
|----------------------|
|----------------------|
|----------------------|
Comments