Krezip - Wont Cry Chords & Tabs

 

Wont Cry Chords & Tabs

Krezip Chords & Tabs

Version: 1 Type: Tab 0 ratings
1 star 2 stars 3 stars 4 stars 5 stars
comments

Wont Cry Tab

   
if you need more of this stoff so have a look a this site...peace

http://www.delirewiet.net/krezip/en/

  
Nederlandse versie   
  

krezip - won't cry
------------------

CAPO III (fretposities op gitaar relatief ten opzichte van de capo)

I)        Am       G         Em        F   
      E ---------|---------|---------|---------
      B ---------|---------|---------|---------
      G -----5-4-|-----5-4-|-----5-4-|-----2---  (2x)
      D ---------|---------|---------|---------
      A -----3-2-|-----3-2-|-----3-2-|-----0---
      E ---------|---------|---------|---------
     
          Am       G         Em        F   
      E ---------|---------|---------|---------
      B ---------|---------|---------|---------
      G -----9-7-|-----9-7-|-----9-7-|-----5---
      D ---------|---------|---------|---------
      A -----7-5-|-----7-5-|-----7-5-|-----3---
      E ---------|---------|---------|---------
     
          Am       G         Em    Ab     
      E ---------|---------|---------|---------
      B ---------|---------|---------|---------
      G -----5-4-|-----5-4-|-----5---|---------
      D ---------|---------|-------6-|---------
      A -----3-2-|-----3-2-|-----3---|---------
      E ---------|---------|-------4-|---------


II)      Am        Fmaj7     Dm          Em
      e ---------|---------|-----1p0---|-------0-
      B -----1-0-|-1-------|---------3-|-----0---
      G -----2-2-|-2-------|---2-------|---0-----
      D ---2-----|-3-------|-0---------|---------
      A -0-------|---------|-----------|---------
      E ---------|---------|-----------|-0-------

         Am        Fmaj7     Dm        Em
      e ---------|---------|-------1-|-------0-
      B -----1-0-|-1-------|-----3---|-----0---
      G -----2-2-|-2-------|---2-----|---0-----
      D ---2-----|-3-------|-0-------|---------
      A -0-------|---------|---------|---------
      E ---------|---------|---------|-0-------
[ Tab from: http://www.guitartabs.cc/tabs/k/krezip/wont_cry_tab.html ]
III)     F         F         G         G
      E ---------|---------|---------|---------
      B ---------|---------|---------|---------
      G ---------|---------|---------|---------
      D -3-3-3-3-|-3-3-3-3-|-5-5-5-5-|-5-5-5-5-
      A -3-3-3-3-|-3-3-3-3-|-5-5-5-5-|-5-5-5-5-
      E -1-1-1-1-|-1-1-1-1-|-3-3-3-3-|-3-3-3-3-

IV)  	(bas, luister voor maat en ritme naar muziek)

      E --------------|-----------|-------------|------------
      B --------------|-----------|-------------|------------
      G --------------|-----------|-------------|------------
      D --------------|-----------|-------------|------------
      A --3-3---------|-3-3-------|-3-3---------|-3-3--------
      E ------6-6-3-4-|-----3-4-3-|-----6-6-3-4-|-----3-4-3--


-------

I)

II)
you hoped that if you'd forget your memories
that they'd forget you too
you'd put a bandage on your aching spot
and that will make you feel good
i think someone should have told you that
this ain't the way it works
and that you have to work it out some day
you will, yeah

III)
it takes you further everytime
it will make you sweat like hell
you just can't keep gnashing your teeth forever

I)
won't cry, why wouldn't you
no, won't let them get to you
won't cry
and if anyone will try to tell you that
this ain't, no no
this ain't, no
it ain't the way it works
they're wrong, they're wrong, so wrong

II)
well you've done enough to prove us all
won't let them get you down
but now i think the moment's here
to show yourself your weaknesses
i see you figured out by now
this ain't the way that things go
and the time has come to work it out
you will, yeah

III)
it takes you further everytime
it will make you sweat like hell
you just can't keep gnashing your teeth forever

I)
won't cry, why wouldn't you
no, won't let them get to you
won't cry
and if anyone will try to tell you that
this ain't, no no
this ain't, no
it ain't the way it works
they're wrong, they're wrong, so wrong (no, no, no, no)

IV)
you won't cry, won't cry, i know
you won't cry, won't cry, won't let them get to you
won't cry, won't cry, ooh no
you won't cry, yeah

I)
you won't cry, why wouldn't you
no, won't let them get to you
won't cry
and if anyone will try to tell you that
this ain't, no no
this ain't, no
this ain't the way it works
they're wrong, they're wrong, so wrong (no, no, no, no)
 

 1999-2000 Jesse Klaasse (site) and Krezip (lyrics and music)
Comments